Song name
# A B C D E F G H I J K L M N O P Q R S T U V W X Y Z

Pink Martini - Mar Desconocido tab

  
    ----------------------------------------------------------

    PINK MARTINI - MAR DESCONOCIDO (M Zarzar) From HEY EUGENE! 
                   album. Released May, 14th 2007.

    ----------------------------------------------------------

    Tabbed by:PJVillanueva

 
  


    Barco en el mar, lejos de ti
    El horizonte, linea sin fin
    Nubes que llenan mi soledad
    Pintan tu boca, parecen hablar

    De esta tormenta no pasare
    El fin del mundo no encontrare
    Maderos crujen, el dia se va
    Nube tan negra me llevara

    De tanto y tanto navegar
    Mis lagrimas caen al mar
    El viento disuelve mi voz
    No quedan noches entre los dos

    Sin mapa ni guia cai en ti
    En tu marea yo me perdi
    Navegar a ciegas esta pasion,
    Barco en las olas de tu corazon

    Me pregunte cuando parti
    Si esta corriente llegaba a ti
    Solo quede con mi ilusion
    Isla perdida de una ficcion
    


    3/4


    xx        X    x    X         x         X    x    X    X            
  
  e|--------- --------- ---------|--------- --------- ---------|
  B|-----------------------------|-----------------------------|
  G|-----------------------------|-----------------------------|
  D|-----------------------------|-----------------------------|
  A|-----------------------------|-----------------------------|
  E|-----------------------------|-----------------------------|

    x    x    X    x    X     xxx x    x    X    x    X    X

  e|--------- --------- ---------|--------- --------- ---------|
  B|-----------------------------|-----------------------------|
  G|-----------------------------|-----------------------------|
  D|-----------------------------|-----------------------------|
  A|-----------------------------|-----------------------------|
  E|-----------------------------|-----------------------------|


    00:05
    C#m                             
  e|--------- --------- ---------|-----4--- --------- -----4---|
  B|5----------------------------|-----5---------5---------5---|
  G|6----------------------------|-----6---------6---------6---|
  D|6----------------------------|---------------6-------------|
  A|4----------------------------|-----------------------------|
  E|-----------------------------|-----------------------------|

  e|9-------- --------- ---------|-----12--- ----9--- ----12---|
  B|-----------------------------|-----------------------------|
  G|-----------------------------|-----------------------------|
  D|-----------------------------|-----------------------------|
  A|-----------------------------|-----------------------------|
  E|-----------------------------|-----------------------------|



    G#7
  e|4-------- --------- ---------|--------- --------- ---------|
  B|7----------------------------|-----------------------------|
  G|5----------------------------|-----------------------------|
  D|6----------------------------|-----------------------------|
  A|-----------------------------|-----------------------------|
  E|-----------------------------|-----------------------------|

  e|11------- --------- ---------|--------- --------- ---------|
  B|-----------------------------|-----------------------------|
  G|-----------------------------|-----------------------------|
  D|-----------------------------|-----------------------------|
  A|-----------------------------|-----------------------------|
  E|-----------------------------|-----------------------------|




  e|4-------- --------- ---------|--------- --------- ---------|
  B|7----------------------------|-----------------------------|
  G|5----------------------------|-----------------------------|
  D|6----------------------------|-----------------------------|
  A|-----------------------------|-----------------------------|
  E|-----------------------------|-----------------------------|

  e|8-------- --------- ---------|-----8--- 9---11--- 8----9---|
  B|-----------------------------|-----------------------------|
  G|-----------------------------|-----------------------------|
  D|-----------------------------|-----------------------------|
  A|-----------------------------|-----------------------------|
  E|-----------------------------|-----------------------------|




  e|--------- --------- ---------|--------- --------- ---------|
  B|-----------------------------|---------------------------H-|
  G|-----------------------------|----------------------H--3--5|
  D|---------------6-------------|------------H--H----4--6-----|
  A|-----------------------------|----------3--4--6/7----------|
  E|---------------4-------------|-----4H6---------------------|


    00:13

    C#m
  e|--------- --------- ---------|-----4--- --------- -----4---|
  B|5----------------------------|-----5---------5---------5---|
  G|6----------------------------|-----6---------6---------6---|
  D|6----------------------------|---------------6-------------|
  A|4----------------------------|-----------------------------|
  E|-----------------------------|-----------------------------|

  e|--------- --------- ---------|--------- --------- ---------|
  B|-----------------------------|-----------------------------|
  G|6----------------------------|-----------------------------|
  D|-----------------------------|-----------------------------|
  A|-----------------------------|-----------------------------|
  E|-----------------------------|-----------------------------|

  e|9-------- --------- ---------|-----12--- ----9--- ----12---|
  B|-----------------------------|-----------------------------|
  G|-----------------------------|-----------------------------|
  D|-----------------------------|-----------------------------|
  A|-----------------------------|-----------------------------|
  E|-----------------------------|-----------------------------|



    G#7
  e|4-------- --------- ---------|--------- --------- ---------|
  B|7----------------------------|-----------------------------|
  G|5----------------------------|-----------------------------|
  D|6----------------------------|-----------------------------|
  A|-----------------------------|-----------------------------|
  E|-----------------------------|-----------------------------|

  e|11------- --------- ---------|--------- --------- ---------|
  B|-----------------------------|-----------------------------|
  G|-----------------------------|-----------------------------|
  D|-----------------------------|-----------------------------|
  A|-----------------------------|-----------------------------|
  E|-----------------------------|-----------------------------|




  e|4-------- --------- ---------|--------- --------- ---------|
  B|7----------------------------|-----------------------------|
  G|5----------------------------|-----------------------------|
  D|6----------------------------|-----------------------------|
  A|-----------------------------|-----------------------------|
  E|-----------------------------|-----------------------------|

  e|8-------- --------- ---------|-----8--- 9---11--- 8----9---|
  B|-----------------------------|-----------------------------|
  G|-----------------------------|-----------------------------|
  D|-----------------------------|-----------------------------|
  A|-----------------------------|-----------------------------|
  E|-----------------------------|-----------------------------|




  e|--------- --------- ---------|--------- --------- ---------|
  B|-----5----4------------------|-----------------------------|
  G|---------------5----6--------|-----------------------------|
  D|-------------------------7---|5----6-----------------------|
  A|-----------------------------|----------7----6---------6---|
  E|-----------------------------|--------------------8--------|


    00:22

  e|--------- --------- ---------|--------- --------- ---------|
  B|-----------------------------|-----------------------------|
  G|-----------------------------|-----------------------------|
  D|-----------------------------|-----------------------------|
  A|4----------------------------|-----------------------------|
  E|-----------------------------|-----------------------------|
    C#m
  e|--------- -----9--- -----9---|--------- -----9--- -----9---|
  B|----------9---------9--------|----------9---------9--------|
  G|-----9-----------------------|-----9-----------------------|
  D|11---------------------------|11---------------------------|
  A|-----------------------------|-----------------------------|
  E|-----------------------------|-----------------------------|




  e|--------- -----9--- -----9---|--------- -----9--- -----9---|
  B|----------9---------9--------|----------9---------9--------|
  G|-----9-----------------------|-----9-----------------------|
  D|11---------------------------|11---------------------------|
  A|-----------------------------|-----------------------------|
  E|-----------------------------|-----------------------------|




  e|--------- --------- ---------|
  B|-------------------------9---|
  G|---------------6----9--------|
  D|----------6------------------|
  A|-----7-----------------------|
  E|9----------------------------|
                                                                                  

    00:28

  e|9-------- --------- ---------|--------- --------- ---------|
  B|-----------------------------|-----------------------------|
  G|-----------------------------|-----------------------------|
  D|-----------------------------|-----------------------------|
  A|-----------------------------|-----------------------------|
  E|-----------------------------|-----------------------------|
                  Barco en   el   mar,            lejos    de 
 
    00:30

    G#7
  e|--------- --------- ---------|--------- --------- ---------|
  B|----------7------------------|----------7---------7--------|
  G|----------5------------------|----------5---------5--------|
  D|----------4------------------|----------4---------4--------|
  A|-----------------------------|-----------------------------|
  E|4----------------------------|4----------------------------|
    ti
  e|--------- -----4--- 5----3---|4-------- --------- ---------|
  B|----------4------------------|-----------------------------|
  G|-----5-----------------------|-----------------------------|
  D|6----------------------------|-----------------------------|
  A|-----------------------------|-----------------------------|
  E|-----------------------------|-----------------------------|

  e|--------- --------- ---------|--------- --------- ---------|
  B|-----------------------------|-----------------------------|
  G|-----------------------------|-----5-----------------------|
  D|-----------------------------|----------6------------------|
  A|-----------------------------|---------------7----6----5---|
  E|-----------------------------|-----------------------------|

  e|--------- --------- ---------|-----8--- --------- ---------|
  B|-----------------------------|----------9------------------|
  G|-----------------------------|---------------9----8----7---|
  D|-----------------------------|-----------------------------|
  A|-----------------------------|-----------------------------|
  E|-----------------------------|-----------------------------|



    0:33

  e|--------- --------- ---------|--------- --------- ---------|
  B|----------7---------7--------|----------7---------7--------|
  G|----------5---------5--------|----------5---------5--------|
  D|----------4---------4--------|----------4---------4--------|
  A|-----------------------------|-----------------------------|
  E|4----------------------------|4----------------------------|
                   El   horizonte,               linea     sin  
  e|--------- --------- ---------|--------- --------- ---------|
  B|-----------------------------|-----------------------------|
  G|-----------------------------|-----------------------------|
  D|-----------------------------|-----------------------------|
  A|6----------------------------|-----------------------------|
  E|-----------------------------|-----------------------------|

  e|--------- --------- ---------|--------- --------- ---------|
  B|-----------------------------|-----------------------------|
  G|8----------------------------|-----------------------------|
  D|-----------------------------|-----------------------------|
  A|-----------------------------|-----------------------------|
  E|-----------------------------|-----------------------------|


    00:35
    C#m
  e|--------- --------- ---------|--------- --------- ---------|
  B|----------5---------5--------|----------5---------5--------|
  G|----------6---------6--------|----------6---------6--------|
  D|----------6---------6--------|----------6---------6--------|
  A|4----------------------------|4----------------------------|
  E|-----------------------------|-----------------------------|
    fin 
  e|--------- --------- 8----9---|--------- --------- ---------|
  B|----------9---11-------------|11---------------------------|
  G|-----9-----------------------|-----------------------------|
  D|-----------------------------|-----------------------------|
  A|-----------------------------|-----------------------------|
  E|-----------------------------|-----------------------------| 

  e|--------- --------- ---------|--------- --------- ---------|
  B|-----------------------------|-----------------------------|
  G|-----------------------------|---------------8---------6---|
  D|-----------------------------|-----------------------------|
  A|-----------------------------|-----6----7------------------|
  E|-----------------------------|-----------------------------|

  e|--------- --------- ---------|--------- ----11--- -----9---|
  B|-----------------------------|-----------------------------|
  G|-----------------------------|-----8----9------------------|
  D|-----------------------------|-----------------------------|
  A|-----------------------------|-----------------------------|
  E|-----------------------------|-----------------------------|

             
    00:37

  e|--------- --------- ---------|--------- --------- ---------|
  B|----------5---------5--------|----------5---------5--------|
  G|----------6---------6--------|----------6---------6--------|
  D|----------6---------6--------|----------6---------6--------|
  A|4----------------------------|4----------------------------|
  E|-----------------------------|-----------------------------|
                   Nubes     que  llenan         mi        soledad
  e|--------- --------- ---------|--------- --------- ---------|
  B|-----------------------------|-----------------------------|
  G|-----------------------------|-----------------------------|
  D|6----------------------------|6------------------------6---|
  A|-----------------------------|-----------------------------|
  E|-----------------------------|-----------------------------|

  e|--------- --------- ---------|--------- --------- ---------|
  B|9----------------------------|9------------------------9---|
  G|-----------------------------|-----------------------------|
  D|-----------------------------|-----------------------------|
  A|-----------------------------|-----------------------------|
  E|-----------------------------|-----------------------------|

    
    00:39
    D#
  e|--------- --------- ---------|--------- --------- ---------|
  B|----------8---------8--------|----------8---------8--------|
  G|----------8---------8--------|----------8---------8--------|
  D|----------8---------8--------|----------8---------8--------|
  A|6----------------------------|6----------------------------|
  E|-----------------------------|-----------------------------|

  e|15---12-- 11------- ---------|--------- --------- ---------|
  B|---------------14---11-------|-----------------------------|
  G|-------------------------13--|12---------------------------|
  D|-----------------------------|-----------------------------|
  A|-----------------------------|-----------------------------|
  E|-----------------------------|-----------------------------|

  e|--------- --------- ---------|--------- --------- ---------|
  B|-----------------------------|-----------------------------|
  G|-----------------------------|-----------------------------|
  D|5----------------------------|-----------------------------|
  A|---------------6-------------|-----6----7------------------|
  E|-----------------------------|---------------8----9----3---|
    
  e|--------- --------- ---------|--------- --------- ---------|
  B|8----------------------------|-----------------------------|
  G|---------------8-------------|-----8----9------------------|
  D|-----------------------------|---------------10---11-------|
  A|-----------------------------|-------------------------10--|
  E|-----------------------------|-----------------------------|


    00:41
    G#7
  e|--------- --------- ---------|--------- --------- ---------|
  B|----------7---------7--------|----------7---------7--------|
  G|----------5---------5--------|----------5---------5--------|
  D|----------4---------4--------|----------4---------4--------|
  A|-----------------------------|-----------------------------|
  E|4----------------------------|4----------------------------|
              Pintan         tu   boca,          parecen   hablar
  e|--------- --------- ---------|--------- --------- ---------|
  B|-----------------------------|-----------------------------|
  G|-----------------------------|-----------------------------|
  D|-----------------------------|-----------------------------|
  A|-----------------------------|-----------------------------|
  E|4----------------------------|4----------------------------|

  e|--------- --------- ---------|--------- --------- ---------|
  B|-----------------------------|-----------------------------|
  G|-----------------------------|-----------------------------|
  D|-----------------------------|-----------------------------|
  A|11---------------------------|11---------------------------|
  E|-----------------------------|-----------------------------|


    00:44
    C#m
  e|--------- --------- ---------|--------- --------- ---------|
  B|----------5---------5--------|----------5------------------|
  G|----------6---------6--------|----------6------------------|
  D|----------6---------6--------|----------6------------------|
  A|4----------------------------|4----------------------------|
  E|-----------------------------|--------------------4--------|

  e|--------- --------- ---------|--------- --------- 6----8---|
  B|-----------------------------|----------7----9-------------|
  G|--------------------5----6---|8----9-----------------------|
  D|----------6----8-------------|-----------------------------|
  A|-----7-----------------------|-----------------------------|
  E|-----------------------------|-----------------------------|
    
  e|--------- --------- ---------|--------- --------- ---------|
  B|-----------------------------|-----------------------------|
  G|-----------------------------|-----------------------------|
  D|-----------------------------|6----------------------------|
  A|7----------------------------|-----------------------------|
  E|-----------------------------|--------------------4--------|

  e|--------- --------- ---------|--------- --------- ---------|
  B|-----------------------------|9----------------------------|
  G|9----------------------------|-----------------------------|
  D|-----------------------------|--------------------6--------|
  A|-----------------------------|-----------------------------|
  E|-----------------------------|-----------------------------|


    00:47

  e|--------- --------- ---------|--------- --------- ---------|
  B|5----------------------------|-----------------------------|
  G|6----------------------------|-----------------------------|
  D|6----------------------------|-----------------------------|
  A|4----------------------------|-----------------------------|
  E|-----------------------------|-----------------------------|
                   De esta   tormenta       no   pasare
  e|9-------- --------- ---------|--------- --------- ---------|
  B|-----------------------------|-----------------------------|
  G|-----------------------------|-----------------------------|
  D|-----------------------------|-----------------------------|
  A|-----------------------------|-----------------------------|
  E|-----------------------------|-----------------------------|

  e|--------- -------------------|--------- --------- ---------|
  B|-----------------------------|-----------------------------|
  G|-----------------------------|-----------------------------|
  D|-----------------------------|-----------------------------|
  A|4----------------------------|-----------------------------|
  E|-----------------------------|-----------------------------|

  e|--------- --------- ---------|--------- ---------- --------|
  B|-----------------------------|-----------------------------|
  G|6----------------------------|-----------------------------|
  D|-----------------------------|-----------------------------|
  A|-----------------------------|-----------------------------|
  E|-----------------------------|-----------------------------|


    El fin del mundo no encontrare
    Maderos crujen, el dia se va
    Nube tan negra me llevara

    01:03

  e|--------- --------- ---------|--------- --------- ----0---2|
  B|-----------------------------|--------------0---2-4--------|
  G|-----------------------------|--------1-2------------------|
  D|----------------------------1|2---4------------------------|
  A|------------------0-2---4----|-----------------------------|
  E|--------0-2---4--------------|-----------------------------|
                                                      De

    01:06

  e|--------- --------- ---------|--------- 2-------- 2--------|
  B|----------0---------0--------|----------3---------3--------|
  G|----------1---------1--------|----------2---------2--------|
  D|----------2---------2--------|0----------------------------|
  A|-----------------------------|-----------------------------|
  E|0----------------------------|-----------------------------|
    tanto               y         tanto               navegar
  e|4-------- --------- ---------|--------- --------- ---------|
  B|-----------------------------|-----------------------------|
  G|-----------------------------|-----------------------------|
  D|-----------------------------|-----------------------------|
  A|-----------------------------|-----------------------------|
  E|-----------------------------|-----------------------------|



  e|--------- --------- ---------|--------- --------- ---------|
  B|----------6---------6--------|----------6---------6--------|
  G|----------6---------6--------|----------6---------6--------|
  D|----------6---------6--------|----------6---------6--------|
  A|4----------------------------|4----------------------------|
  E|-----------------------------|-----------------------------|
                                                      mis
  e|--------- --------- ---------|--------- --------- ---------|
  B|----------15---14---12-------|-----------------------------|
  G|-------------------------14--|13---11----------------------|
  D|-----------------------------|----------15---12---11-------|
  A|-----------------------------|-------------------------14--|
  E|-----------------------------|-----------------------------|



  e|--------- --------- ---------|--------- --------- ---------|
  B|----------2---------2--------|----------2---------2--------|
  G|----------2---------2--------|----------2---------2--------|
  D|----------4---------4--------|----------2---------2--------|
  A|-----------------------------|-----------------------------|
  E|2----------------------------|2----------------------------|
    lagrimas                      caen           al
  e|--------- --------- ---------|--------- --------- ---------|
  B|-----------------------------|-----------------------------|
  G|-----------------------------|-----------------------------|
  D|-----------------------------|-----------------------------|
  A|12---------------------------|-----------------------------|
  E|-----------------------------|-----------------------------|
               


  e|--------- --------- ---------|--------- --------- ---------|
  B|----------7---------7--------|----------4---------4--------|
  G|----------8---------8--------|----------5---------5--------|
  D|----------8---------8--------|----------6---------6--------|
  A|6----------------------------|-----------------------------|
  E|-----------------------------|4----------------------------|
    mar                                               El
  e|9-------- 9-------- 9--------|8-------- -----5--- -----5---|
  B|-----10--------10--------10--|----------7---------7--------|
  G|-----------------------------|-----8-----------------------|
  D|-----------------------------|-----------------------------|
  A|-----------------------------|-----------------------------|
  E|-----------------------------|-----------------------------|



  e|--------- --------- ---------|--------- --------- ---------|
  B|----------4---------4--------|----------6---------6--------|
  G|----------4---------4--------|----------6---------6--------|
  D|----------6---------6--------|----------6---------6--------|
  A|-----------------------------|4----------------------------|
  E|4----------------------------|-----------------------------|
    viento                   disuelve                      mi
  e|10------- 10------- 10-------|9-------- --------- ---------|
  B|-----12--------12--------12--|-----------------------------|
  G|-----------------------------|-----------------------------|
  D|-----------------------------|-----------------------------|
  A|-----------------------------|-----------------------------|
  E|-----------------------------|-----------------------------|
 


  e|--------- --------- ---------|--------- --------- ---------|
  B|----------2---------2--------|----------2---------2--------|
  G|----------2---------2--------|----------2---------2--------|
  D|----------4---------4--------|----------2---------4--------|
  A|-----------------------------|-----------------------------|
  E|2----------------------------|2----------------------------|
    voz
  e|--------- --------- ---------|--------- -----14-- -----14--|
  B|-----------------------------|----------16--------16-------|
  G|-----------------------------|-----14----------------------|
  D|-----------------------------|-----------------------------|
  A|-----------------------------|-----------------------------|
  E|-----------------------------|-----------------------------|



  e|--------- --------- ---------|--------- --------- ---------|
  B|----------7---------7--------|----------4------------------|
  G|----------8---------8--------|----------5------------------|
  D|----------8---------8--------|----------6------------------|
  A|6----------------------------|-----------------------------|
  E|-----------------------------|4----------------------------|
                   No   quedan    noches         entre     los
  e|--------- --------- ---------|--------- --------- ---------|
  B|-----------------------------|-----------------------------|
  G|-----------------------------|-----------------------------|
  D|-----------------------------|-----------------------------|
  A|-----------------------------|-----------------------------|
  E|-----------------------------|-----------------------------|



  e|--------- --------- ---------|--------- --------- ---------|
  B|5----------------------------|-----------------------------|
  G|6----------------------------|-----------------------------|
  D|6----------------------------|-----------------------------|
  A|4----------------------------|-----------------------------|
  E|-----------------------------|-----------------------------|
    dos
  e|--------- --------- ---------|--------- --------- 12---14--|
  B|-----------------------------|-----13---14---16------------|
  G|-------------------------13--|15---------------------------|
  D|----------13---14---16-------|-----------------------------|
  A|15---16----------------------|-----------------------------|
  E|-----------------------------|-----------------------------|


    Chopin's Waltz in C#m Opus 64 No.2 excerpt comping
    01:23 - 01:32
    G#                            C#m
  e|--------- --------- ---------|--------- --------- ---------|
  B|----------1------------------|----------5---------5--------|
  G|----------1------------------|----------6---------6--------|
  D|----------1------------------|----------6---------6--------|
  A|3----------------------------|4----------------------------|
  E|-----------------------------|-----------------------------|

  e|16------- --------- ---------|--------- --------- ---------|
  B|-----------------------------|-----------------------------|
  G|-----------------------------|-----------------------------|
  D|-----------------------------|-----------------------------|
  A|-----------------------------|-----------------------------|
  E|-----------------------------|-----------------------------|


    G#                            A
  e|--------- --------- ---------|--------- --------- ---------|
  B|----------4------------------|----------5---------5--------|
  G|----------5------------------|----------6---------6--------|
  D|----------6------------------|----------7---------7--------|
  A|-----------------------------|0----------------------------|
  E|4----------------------------|-----------------------------|


    F#m                           G#sus4
  e|--------- --------- ---------|--------- --------- ---------|
  B|----------2---------2--------|----------4---------4--------|
  G|----------2---------2--------|----------6---------6--------|
  D|----------4---------4--------|----------6---------6--------|
  A|-----------------------------|-----------------------------|
  E|2----------------------------|4----------------------------|


    G#                            C#m
  e|--------- --------- ---------|--------- --------- ---------|
  B|----------4------------------|----------5---------5--------|
  G|----------5------------------|----------6---------6--------|
  D|----------6------------------|----------6---------6--------|
  A|-----------------------------|4----------------------------|
  E|4----------------------------|-----------------------------|



    G#                            C#m    
  e|--------- --------- ---------|--------- --------- ---------|
  B|----------1------------------|----------5---------5--------|
  G|----------1------------------|----------6---------6--------|
  D|----------1------------------|----------6---------6--------|
  A|3----------------------------|4----------------------------|
  E|-----------------------------|-----------------------------|


    G#                            A
  e|--------- --------- ---------|--------- --------- ---------|
  B|----------4------------------|----------5---------5--------|
  G|----------5------------------|----------6---------6--------|
  D|----------6------------------|----------7---------7--------|
  A|-----------------------------|0----------------------------|
  E|4----------------------------|-----------------------------|


    F#m                           A
  e|--------- --------- ---------|--------- --------- ---------|
  B|----------2---------2--------|----------2---------2--------|
  G|----------2---------2--------|----------2---------2--------|
  D|----------4---------4--------|----------2---------2--------|
  A|-----------------------------|-----------------------------|
  E|2----------------------------|5----------------------------|


    G#                           
  e|--------- --------- ---------|
  B|----------4---------4--------|
  G|----------5---------5--------|
  D|----------6---------6--------|
  A|-----------------------------|
  E|4----------------------------|


    01:39
    C#m
  e|--------- --------- ---------|--------- --------- ---------|
  B|5----------------------------|-----------------------------|
  G|6----------------------------|-----------------------------|
  D|6----------------------------|-----------------------------|
  A|4----------------------------|-----------------------------|
  E|-----------------------------|-----------------------------|
              Sin  mapa      ni   guia           cai       en
 

  
    01:41
    ti
    En tu marea yo me perdi
    Navegar a ciegas esta pasion,
    Barco en las olas de tu corazon


    01:58 
    Me pregunte cuando parti
    Si esta corriente llegaba a ti
    Solo quede con mi ilusion
    Isla perdida de una ficcion   

    02:15
    De tanto y tanto navegar
    Mis lagrimas caen al mar
    El viento disuelve mi voz
    No quedan noches entre los dos

    02:35
    De tanto y tanto navegar
    Mis lagrimas caen al mar
    El viento disuelve mi voz
    No quedan noches entre los dos


           
              



        B  Bend
        R  Release
        /  Slide up
        \  Slide down
        H  Hammer-on
        P  Pull-off
        ~  Vibrato
        +  Harmonic
        x  Mute note
        .  Play note like a dot in standard notation
        ^  Ties two notes together
        (. Pause


       
Tap to rate this tab
# A B C D E F G H I J K L M N O P Q R S T U V W X Y Z