Song name
# A B C D E F G H I J K L M N O P Q R S T U V W X Y Z

Pink Noise - Calling You tab

Artist: Pink Noise
Song Title: Calling You
Album: The Boom Boom EP
Tuning: Standard (EADGBE)
Transcribed by: Chris White (shaggymoods70@yahoo.com)

One day I was bored and I went through the entire Pink Noise album and
figured out all the songs, so look out for the rest of the songs.

RIFF ONE:

E|--------------------------------------|
B|-7-7-7-7\10-7----10-10-10-11-11-11-12-|
G|--------------------------------------|
D|--------------------------------------|
A|--------------------------------------|
E|--------------------------------------|

VARIATION OF RIFF ONE:

E|----------------|
B|-7-7-7-7\11-7-7-|
G|----------------|
D|----------------|
A|----------------|
E|----------------|

Chords used for the rest of the song:
   D   F#m  Bm   A    Bb
E|-10---2----7----5----6-|
B|-10---2----7----5----6-|
G|-11---2----7----6----7-|
D|-12---4----9----7----8-|
A|-12---4----9----7----8-|
E|-10---2----7----5----6-|

Sorry I didn't transcribe the solo, I didn't feel like it.  You should
hopefully be able to figure out where each riff is played and how many
times, if not, i pity you.


Any questions or comments---------Chris White(shaggymoods70@yahoo.com)
Tap to rate this tab
 
# A B C D E F G H I J K L M N O P Q R S T U V W X Y Z