Song name
# A B C D E F G H I J K L M N O P Q R S T U V W X Y Z

Pink Turns Blue - I Coldly Stare Out To The Sky chords

Highlighted       Show chord diagrams
A darkwave and gothic band of 80' generation 
here's their link of Youtube:  http://www.youtube.com/watch?v=yqCy29-DDm8
here's their website: http://www.pinkturnsblue.com/
here's in the wikipedia: http://en.wikipedia.org/wiki/Pink_Turns_Blue 


Verse: Gm  Dm  Cm  D#

Gm       Dm           Cm        D#
Comes a time, comes a shadow
Gm        Dm              Cm     D#
Comes a devil, calls your name
Gm          Dm               Cm   D#
Can't you hear his echoing paces
Gm       Dm            Cm    D#
Cold fingers point on you

Gm     Dm              Cm      D#   [repeat the same chords)
Icy sounds cry into the night
Just a puppet in their play
A lonesome king calls his lonely crowd
Calls you home into decay

Chorus:  Cm  D#

   Cm                       D#
I coldly stare out to the sky

Gm            Dm             Cm    D#    [repeat the same chords)
Someone's waiting someone smiles
Try to hide, try to turn away
You've got no chance to save your health
No chance to end up that old game

Cm                       D#
I coldly stare out to the sky


   
E--5------------3--1--|---------------------|-5--------5/6---3----|---------------------|
B--------3--4---------|-3-------------------|----3-------------6/4|3-------3431---------|
G---------------------|-------5-3-----------|---------------------|---------------------|      
D---------------------|---------------------|---------------------|---------------------|    
A---------------------|---------------------|---------------------|---------------------|
E---------------------|---------------------|---------------------|---------------------|


E---10-------10-----13|---10-8----10--------|-----------------3---|---------------------|
B-8----8---8----8-----|-8------------8----64|3--------3-4-------64|3-------3431----1--34|
G----------8----------|---------------------|---------------------|---------------------|      
D---------------------|---------------------|---------------------|---------------------|    
A---------------------|---------------------|---------------------|---------------------|
E---------------------|---------------------|---------------------|---------------------|


Gm         Dm           Cm        D#
I get no time to pray a farewell, farewell
Another day, another life
A broken mirror cuts your face
Relentless words are driving mad

Cm                       D#
I coldly stare out to the sky
Tap to rate this tab
# A B C D E F G H I J K L M N O P Q R S T U V W X Y Z