Song name
# A B C D E F G H I J K L M N O P Q R S T U V W X Y Z

Pink - Its All Your Fault tab

Help us improve GuitareTab! Take a short survey!
Play with distortion.

Intro and Verse.
This lick is played 7x when its first played and 6x when played again.

E|-------------------------3-3-3-3-3-|
B|-----------------------------------|
G|-9-9-9-8--4--4-4--2--4-------------|
D|-9-9-9-9--5--5-5--4--2-------------|
A|-----------------------------------|
E|-----------------------------------|

Chorus x2
E5 D5 G5 C5
E5 D5 G5 A5

Bridge x4 
E5 C5 G5 A5
E5 C5 G5 D5

Bridge Solo

E|-----12-12-7-7-7-8-7-----------12-12-7-7-7-8-7-8---|
B|-9-9-----------------10-8--9-9-------------------8-|
G|---------------------------------------------------| x3
D|---------------------------------------------------|
A|---------------------------------------------------|
E|---------------------------------------------------|

Last Chorus Solo

E|----------------------------------------------------------|
B|------------------------12-12-12-10-8-8-8-7-5-5-5-7-5-5-5-|
G|-9-9-9-9-9-7-4-4-4-2-4------------------------------------| x3
D|----------------------------------------------------------|
A|----------------------------------------------------------|
E|----------------------------------------------------------|




Related for Its All Your Fault tab