Song name
# A B C D E F G H I J K L M N O P Q R S T U V W X Y Z

Pink - One That Got Away tab

artist: pink
album:i'm not dead
song: the one that got away
tabbed by: feeney (josie)


this is more the live version but it still goes along with the record :)
it's not perfict but it's not really bad either, it's how i play it lol x

             *updated pre chorus- 14/12/07* (thanks to nucleartofu)

tuning: D,A,D,G,B,e

key *=bend 
    /=slide
    P= pull off
    H= hammer on


Intro

e|------x---------x---------x--|
B|------x---------x---------x--|
G|------x---------x---------x--|
D|------x---------x---------x--|
A|------x---------x---------x--|
D|------x---------x---------x--|
  (One......two......buckle my shoe)

                D              Cadd           G
e|--------|-----2-0------|-----2-0-------|-----2-0---3~-|------------------|
B|--------|--------3---3-|---------3---3-|---------3----|------------------|
G|--------|--------------|---------------|--------------|------------------|
D|--------|-0-0------0---|-----------0---|--------------|-------0H2P0------|
A|--------|--------------|-3-3-----------|--------------|-3H5P3------------|
D|--0-3*--|--------------|---------------|-5-5----------|-------------0h3*-|


        D              Cadd            G
e|-----2-0------|-----2-0-------|-----2-0---3--|--3-3--------------|
B|--------3---3-|---------3---3-|---------3-3--|--3-3--------------|
G|--------------|---------------|--------------|-------------------|
D|-0-0------0---|-----------0---|--------------|-------------------|
A|--------------|-3-3-----------|--------------|-------------------|
D|--------------|---------------|-5-5----------|---------3p0h3*----|


Verse
        D              Cadd            G
e|-----2-0------|-----2-0-------|-----2-0---3~-|------------------------|
B|--------3---3-|---------3---3-|---------3----|------------------------|
G|--------------|---------------|--------------|------------------------|
D|-0-0------0---|-----------0---|--------------|-------------0H2P0------|
A|--------------|-3-3-----------|--------------|------3H5P3-------------|
D|--------------|---------------|-5-5----------|-------------------0h3*-|
 (I stood by .............playing with his band)


         D              Cadd            G
e|-----2-0------|-----2-0-------|-----2-0---3--|--3-3--------------|
B|--------3---3-|---------3---3-|---------3-3--|--3-3--------------|
G|--------------|---------------|--------------|-------------------|
D|-0-0------0---|-----------0---|--------------|-------------------|
A|--------------|-3-3-----------|--------------|-------------------|
D|--------------|---------------|-5-5----------|---------3p0h3*----|
 (I’ve always.................drink in his hand)


         D              Cadd            G
e|-----2-0------|-----2-0-------|-----2-0---3--|--3-3--------------|
B|--------3---3-|---------3---3-|---------3-3--|--3-3--------------|
G|--------------|---------------|--------------|-------------------|
D|-0-0------0---|-----------0---|--------------|-------------------|
A|--------------|-3-3-----------|--------------|-------------------|
D|--------------|---------------|-5-5----------|---------3p0h3*----|
 (His words.................... I though everyone was watching me)


         D              Cadd            G
e|-----2-0------|-----2-0-------|-----2-0---3--|--3-3--------------|
B|--------3---3-|---------3---3-|---------3-3--|--3-3--------------|
G|--------------|---------------|--------------|-------------------|
D|-0-0------0---|-----------0---|--------------|-------------------|
A|--------------|-3-3-----------|--------------|-------------------|
D|--------------|---------------|-5-5----------|---------3p0h3*----|
 (Watching you save my life with this song)      (but you were)


Pre-chorus
        E              A           ?       A
e|-0--0-0-0-0-0-0-0--0-0-0-0-0-0—-0-0-0—-0-0-0--0-|
B|-0--0-0-0-0-0-0-0--2-2-2-2-2-2—-7-7-7—-2-2-2--2-|
G|-0--0-0-0-0-0-0-0--2-2-2-2-2-2—-7-7-7--2-2-2--2-|
D|-2--2-2-2-2-2-2-2--2-2-2-2-2-2—-7-7-7--2-2-2--2-|
A|-2--2-2-2-2-2-2-2--0-0-0-0-0-0—-0-0-0--0-0-0--0-|
E|-2--2-2-2-2-2-2-2-------------------------------|
(Mine, in the back of my mind)


         E              
e|-0--0-0-0-0-0-0-0--------------------------------/-|
B|-0--0-0-0-0-0-0-0—------3----5----7----8----10---/-|
G|-0--0-0-0-0-0-0-0—-------------------------------/-| 
D|-2--2-2-2-2-2-2-2—---/4---/5---/7---/9---/11-----/-| 
A|-2--2-2-2-2-2-2-2--0-----------------------------/-| 
E|-2--2-2-2-2-2-2-2--------------------------------/-| 
   (just for a while)

Chorus
                D              Cadd           G
e|-----2-0------|-----2-0-------|-----2-0---3~-|------------------|
B|--------3---3-|---------3---3-|---------3----|------------------|
G|--------------|---------------|--------------|------------------|
D|-0-0------0---|-----------0---|--------------|-------0H2P0------|
A|--------------|-3-3-----------|--------------|-3H5P3------------|
D|--------------|---------------|-5-5----------|-------------0h3*-|
 (There’s always one that gets away)


         D              Cadd            G
e|-----2-0------|-----2-0-------|-----2-0---3--|--3-3--------------|
B|--------3---3-|---------3---3-|---------3-3--|--3-3--------------|
G|--------------|---------------|--------------|-------------------|
D|-0-0------0---|-----------0---|--------------|-------------------|
A|--------------|-3-3-----------|--------------|-------------------|
D|--------------|---------------|-5-5----------|---------3p0h3*----|
(The one that sneaks upon you then slips away)              (see)


verse
         D              Cadd           G
e|-----2-0------|-----2-0-------|-----2-0---3~-|------------------------|
B|--------3---3-|---------3---3-|---------3----|------------------------|
G|--------------|---------------|--------------|------------------------|
D|-0-0------0---|-----------0---|--------------|-------------0H2P0------|
A|--------------|-3-3-----------|--------------|------3H5P3-------------|
D|--------------|---------------|-5-5----------|-------------------0h3*-|
 (Two weeks later…...............what kind of man makes cappuccino)


         D              Cadd            G
e|-----2-0------|-----2-0-------|-----2-0---3--|--3-3--------------|
B|--------3---3-|---------3---3-|---------3-3--|--3-3--------------|
G|--------------|---------------|--------------|-------------------|
D|-0-0------0---|-----------0---|--------------|-------------------|
A|--------------|-3-3-----------|--------------|-------------------|
D|--------------|---------------|-5-5----------|---------3p0h3*----|
 (We laughed…......................ran down my face.........ohhhhh)


         D              Cadd            G
e|-----2-0------|-----2-0-------|-----2-0---3--|--3-3--------------|
B|--------3-x---|---------3-x---|---------3-3--|--3-3--------------|
G|--------------|---------------|--------------|-------------------|
D|-0-0----------|---------------|--------------|-------------------|
A|--------------|-3-------------|--------------|-------------------|
D|--------------|---------------|-5------------|---------3p0h3*----|
 ( but my man..................wanna want)


         D              Cadd            G
e|-----2-0------|-----2-0-------|-----2-0---3--|--3-3--------------|
B|--------3---3-|---------3---3-|---------3-3--|--3-3--------------|
G|--------------|---------------|--------------|-------------------|
D|-0-0------0---|-----------0---|--------------|-------------------|
A|--------------|-3-3-----------|--------------|-------------------|
D|--------------|---------------|-5-5----------|---------3p0h3*----|
 (but you keep....................lying eyes)   (But you’ll always be)


Pre-chorus
        E              A           ?       A
e|-0--0-0-0-0-0-0-0--0-0-0-0-0-0—-0-0-0—-0-0-0--0-|
B|-0--0-0-0-0-0-0-0--2-2-2-2-2-2—-7-7-7—-2-2-2--2-|
G|-0--0-0-0-0-0-0-0--2-2-2-2-2-2—-7-7-7--2-2-2--2-|
D|-2--2-2-2-2-2-2-2--2-2-2-2-2-2—-7-7-7--2-2-2--2-|
A|-2--2-2-2-2-2-2-2--0-0-0-0-0-0—-0-0-0--0-0-0--0-|
E|-2--2-2-2-2-2-2-2-------------------------------|
(Mine in the back of my mind)


          E              
e|-0--0-0-0-0-0-0-0--------------------------------/-|
B|-0--0-0-0-0-0-0-0—------3----5----7----8----10---/-|
G|-0--0-0-0-0-0-0-0—-------------------------------/-| 
D|-2--2-2-2-2-2-2-2—---/4---/5---/7---/9---/11-----/-| 
A|-2--2-2-2-2-2-2-2--0-----------------------------/-| 
E|-2--2-2-2-2-2-2-2--------------------------------/-| 
    (A little while)

Chorus
         D              Cadd           G
e|-----2-0------|-----2-0-------|-----2-0---3~-|------------------------|
B|--------3---3-|---------3---3-|---------3----|------------------------|
G|--------------|---------------|--------------|------------------------|
D|-0-0------0---|-----------0---|--------------|-------------0H2P0------|
A|--------------|-3-3-----------|--------------|------3H5P3-------------|
D|--------------|---------------|-5-5----------|-------------------0h3*-|
 (There’s always one that gets away)


         D              Cadd            G
e|-----2-0------|-----2-0-------|-----2-0---3--|--3-3--------------|
B|--------3---3-|---------3---3-|---------3-3--|--3-3--------------|
G|--------------|---------------|--------------|-------------------|
D|-0-0------0---|-----------0---|--------------|-------------------|
A|--------------|-3-3-----------|--------------|-------------------|
D|--------------|---------------|-5-5----------|---------3p0h3*----|
(The one that sneaks upon you then slips away)


         D              Cadd            G
e|-----2-0------|-----2-0-------|-----2-0---3--|--3-3--------------|
B|--------3---3-|---------3---3-|---------3-3--|--3-3--------------|
G|--------------|---------------|--------------|-------------------|
D|-0-0------0---|-----------0---|--------------|-------------------|
A|--------------|-3-3-----------|--------------|-------------------|
D|--------------|---------------|-5-5----------|---------3p0h3*----|
 (In a closed off corner of my heart, yeah yes)                (I’ll)


         D              Cadd            G
e|-----2-0------|-----2-0-------|-----2-0---3~~-|
B|--------3---3-|---------3---3-|---------3-3~~-|
G|--------------|---------------|---------------|
D|-0-0------0---|-----------0---|---------------|
A|--------------|-3-3-----------|---------------|
D|--------------|---------------|-5-5-----------|
    (Always see your face)                     (The one that got)

bridge
                D              Cadd           G
e|--------|-----2-0------|-----2-0-------|-----2-0---3~-|------------------|
B|--------|--------3---3-|---------3---3-|---------3----|------------------|
G|--------|--------------|---------------|--------------|------------------|
D|--------|-0-0------0---|-----------0---|--------------|-------0H2P0------|
A|--------|--------------|-3-3-----------|--------------|-3H5P3------------|
D|--0-3*--|--------------|---------------|-5-5----------|-------------0h3*-|
  (Away........The one that got away................oh the one that got way)


       D              Cadd            G
e|-----2-0------|-----2-0-------|-----2-0---3--|--3-3--------------|
B|--------3---3-|---------3---3-|---------3-3--|--3-3--------------|
G|--------------|---------------|--------------|-------------------|
D|-0-0------0---|-----------0---|--------------|-------------------|
A|--------------|-3-3-----------|--------------|-------------------|
D|--------------|---------------|-5-5----------|---------3p0h3*----|
 (The one that got away..........ohhhh the one that got away)

Pre-chorus
        E              A           ?       A
e|-0--0-0-0-0-0-0-0--0-0-0-0-0-0—-0-0-0—-0-0-0--0-|
B|-0--0-0-0-0-0-0-0--2-2-2-2-2-2—-7-7-7—-2-2-2--2-|
G|-0--0-0-0-0-0-0-0--2-2-2-2-2-2—-7-7-7--2-2-2--2-|
D|-2--2-2-2-2-2-2-2--2-2-2-2-2-2—-7-7-7--2-2-2--2-|
A|-2--2-2-2-2-2-2-2--0-0-0-0-0-0—-0-0-0--0-0-0--0-|
E|-2--2-2-2-2-2-2-2-------------------------------|
      (Yeeeeaaaaaah yeah yeah, ohhhhh oh oh oh)

               E              
e|-0--0-0-0-0-0-0-0--------------------------------/-|
B|-0--0-0-0-0-0-0-0—------3----5----7----8----10---/-|
G|-0--0-0-0-0-0-0-0—-------------------------------/-| 
D|-2--2-2-2-2-2-2-2—---/4---/5---/7---/9---/11-----/-| 
A|-2--2-2-2-2-2-2-2--0-----------------------------/-| 
E|-2--2-2-2-2-2-2-2--------------------------------/-| 
     (ohhhhh)       (yeeeeeeeeeeaaaaah yeah ohhhhh)


Verse
         D              Cadd           G
e|-----2-0------|-----2-0-------|-----2-0---3~-|------------------------|
B|--------3---3-|---------3---3-|---------3----|------------------------|
G|--------------|---------------|--------------|------------------------|
D|-0-0------0---|-----------0---|--------------|-------------0H2P0------|
A|--------------|-3-3-----------|--------------|------3H5P3-------------|
D|--------------|---------------|-5-5----------|-------------------0h3*-|
(I'm no a vitim.........................or the one)


         D              Cadd            G
e|-----2-0------|-----2-0-------|-----2-0---3--|--3-3--------------|
B|--------3---3-|---------3---3-|---------3-3--|--3-3--------------|
G|--------------|---------------|--------------|-------------------|
D|-0-0------0---|-----------0---|--------------|-------------------|
A|--------------|-3-3-----------|--------------|-------------------|
D|--------------|---------------|-5-5----------|---------3p0h3*----|
 ( ohh but then I met you.............tongue)           (but you were)


Pre-chorus
        E              A           ?       A
e|-0--0-0-0-0-0-0-0--0-0-0-0-0-0—-0-0-0—-0-0-0--0-|
B|-0--0-0-0-0-0-0-0--2-2-2-2-2-2—-7-7-7—-2-2-2--2-|
G|-0--0-0-0-0-0-0-0--2-2-2-2-2-2—-7-7-7--2-2-2--2-|
D|-2--2-2-2-2-2-2-2--2-2-2-2-2-2—-7-7-7--2-2-2--2-|
A|-2--2-2-2-2-2-2-2--0-0-0-0-0-0—-0-0-0--0-0-0--0-|
E|-2--2-2-2-2-2-2-2-------------------------------|
(Mine, some where in time)


             E              
e|-0--0-0-0-0-0-0-0--------------------------------/-|
B|-0--0-0-0-0-0-0-0—------3----5----7----8----10---/-|
G|-0--0-0-0-0-0-0-0—-------------------------------/-| 
D|-2--2-2-2-2-2-2-2—---/4---/5---/7---/9---/11-----/-| 
A|-2--2-2-2-2-2-2-2--0-----------------------------/-| 
E|-2--2-2-2-2-2-2-2--------------------------------/-| 
      (next life)

Chorus
         D              Cadd           G
e|-----2-0------|-----2-0-------|-----2-0---3~-|------------------------|
B|--------3---3-|---------3---3-|---------3----|------------------------|
G|--------------|---------------|--------------|------------------------|
D|-0-0------0---|-----------0---|--------------|-------------0H2P0------|
A|--------------|-3-3-----------|--------------|------3H5P3-------------|
D|--------------|---------------|-5-5----------|-------------------0h3*-|
 (There’s always one that gets away)             (That gets away)


         D              Cadd            G
e|-----2-0------|-----2-0-------|-----2-0---3--|--3-3--------------|
B|--------3---3-|---------3---3-|---------3-3--|--3-3--------------|
G|--------------|---------------|--------------|-------------------|
D|-0-0------0---|-----------0---|--------------|-------------------|
A|--------------|-3-3-----------|--------------|-------------------|
D|--------------|---------------|-5-5----------|---------3p0h3*----|
(The one that sneaks upon you then slips away)     (Slips away)


         D              Cadd            G
e|-----2-0------|-----2-0-------|-----2-0---3--|--3-3--------------|
B|--------3---3-|---------3---3-|---------3-3--|--3-3--------------|
G|--------------|---------------|--------------|-------------------|
D|-0-0------0---|-----------0---|--------------|-------------------|
A|--------------|-3-3-----------|--------------|-------------------|
D|--------------|---------------|-5-5----------|---------3p0h3*----|
 (In a closed off corner of my heart, yeah yeah yeah yes)        (I’ll)


         D              Cadd            G
e|-----2-0------|-----2-0-------|-----2-0---3~~-|
B|--------3---3-|---------3---3-|---------3-3~~-|
G|--------------|---------------|---------------|
D|-0-0------0---|-----------0---|---------------|
A|--------------|-3-3-----------|---------------|
D|--------------|---------------|-5-5-----------|
    (Always see your face)                     (the one that got)


Outro
                  D              Cadd           G
e|--------|-----2-0------|-----2-0-------|-----2-0---3~-|------------------|
B|--------|--------3---3-|---------3---3-|---------3----|------------------|
G|--------|--------------|---------------|--------------|------------------|
D|--------|-0-0------0---|-----------0---|--------------|-------0H2P0------|
A|--------|--------------|-3-3-----------|--------------|-3H5P3------------|
D|--0-3*--|--------------|---------------|-5-5----------|-------------0h3*-|
(Away.......The one that got away................oh the one that got way)


         D              Cadd            G
e|-----2-0------|-----2-0-------|-----2-0---3--|--3-3--------------|
B|--------3---3-|---------3---3-|---------3-3--|--3-3--------------|
G|--------------|---------------|--------------|-------------------|
D|-0-0------0---|-----------0---|--------------|-------------------|
A|--------------|-3-3-----------|--------------|-------------------|
D|--------------|---------------|-5-5----------|---------3p0h3*----|
 (The one that got away..........ohhhh the one that got away)


         D              Cadd            G
e|-----2-0------|-----2-0-------|-----2-0---|-3~~--|
B|--------3---3-|---------3---3-|---------3-|-3~~--|
G|--------------|---------------|-----------|-0~~--|
D|-0-0------0---|-----------0---|-----------|-x~~--|
A|--------------|-3-3-----------|-----------|-5~~--|
D|--------------|---------------|-5-5-------|-5~~--|
 (Yeah yeah , ohh yeah)                       (The one that got away, yeah)



thats it x hopes it easy to read x if you find something thats not quite right leave me 
comment and i'll sort it x

http://www.youtube.com/watch?v=JWwFOmzAF5c this is me playing it on youtube. it may 
:) xxxxxxxxxxxxxx
Tap to rate this tab
# A B C D E F G H I J K L M N O P Q R S T U V W X Y Z