Song name
# A B C D E F G H I J K L M N O P Q R S T U V W X Y Z

Pink - Heartbreaker tab

This is my firs tab..Hope you like it! It's not perfect..Listen 2 the song when you play 
Please let me know what you think..comment- rate..:)

 This is the intro,and the vers..
I keep thinking bout that little sparkle in your eye...
e|--------------------------------------------|
B|--------------------------------------------|
G|----5---5---5---5---5---3---3---3-----------|
D|----5---5---5---5---5---3---3---3-----------|
A|--0H3---0---0---0---0---1---1---1-----------|
E|--------------------------------------------|

Pre-Chorus:There's a ring around my finger..
e|--------------------------------------------|
B|--------------------------------------------|
G|---8---------------10-----------------------|
D|---8---------------10-----------------------|Repet 2 times.
A|---6---------------8------------------------|
E|--------------------------------------------|

Chorus: Are you a heartbreaker..
e|--------------------------------------------|
B|--------------------------------------------|
G|---5------8-----6--------3------------------|
D|---5------8-----6--------3------------------|
A|---3------6-----4--------1------------------|
E|--------------------------------------------|
Tap to rate this tab
# A B C D E F G H I J K L M N O P Q R S T U V W X Y Z