Guitaretab - guitar tabs
Song name
# A B C D E F G H I J K L M N O P Q R S T U V W X Y Z
Home / P / Pink / Sober tab

Pink - Sober tab

/: slide
^: hammer on or pull off
x: mute


|-------------------------------------|---------------------------------------------|
|-------------------------------------|---------------------------------------------|
|--------8-/--------4--------3-----4--|--------8--/--------4---------3-----4--4-----|
|-----8----/-----4--------4-----4-----|-----8-----/-----4---------4-----4--------4--|
|--6-------/--2-----------------------|---6-------/---2-----------------------------|
|-----------------------2-------------|-------------------------2-------------------|


|------------------------------------------------------|
|------------------------------------------------------|
|--------8-/--------4--------4--6^8^6------------------|
|-----8----/-----4--------4-----6------6^8^6-----------|
|--6-------/--2--------6-------------------6-----------|
|------------------------------------------------------|

x2

[ Tab from: http://www.guitaretab.com/p/pink/174450.html ]
|----------------------------------------------|-------------------------------------|
|--------------------------------7--6----------|-------------------------------------|
|--------3--------4--------8-----------8----/--|--------3--------6--------8----------|
|-----4--------4--------8-----8-----------8-/--|-----4--------6--------8-------------|
|-----------2--------6----------------------/--|-----------4--------6----------------|
|--2-------------------------------------------|--2----------------------------------|


|----------------|-------------------------------------------------------------------|
|----------------|--------------------------------7--6-------/-----------------------|
|--6^8^6---------|--------3--------4--------8-----------8----/--------3--------6-----|
|--6------6^8^6--|-----4--------4--------8-----8-----------8-/-----4--------6--------|
|---------6------|-----------2--------6----------------------------------4-----------|
|----------------|--2-------------------------------------------2--------------------|


|------------|
|--6---------|
|--8---------|
|--8---------|
|--6---------|
|------------|


CHORUS:

|--6--6----2--2----2--2----x-x----x-x-x-x-x-------|
|--6--6----2--2----2--2----x-x----x-x-x-x-x-------|
|--8--8----4--4----3--3----x-x----x-x-x-x-x-------|    x2
|--8--8----4--4----4--4----x-x----x-x-x-x-x-------|
|--6--6----2--2----4-4----x-x----x-x-x-x-x-------|
|--6--6----2--2----2--2----x-x----x-x-x-x-x-------|
Related for Sober tab