Pink - Raise Your Glass tab

Song: Raise Your Glass
By: Pink

Awesome party song, love the energy! This is the most accurate I can make it, and 
I'm pretty sure it's right on, enjoy!

Intro/Chorus/Outro:
E|-----------------------------------------------|
B|---12-12----7-7----5-5----5-5----5--xx--5--xx--|
G|---12-12----7-7----5-5----5-5----5--xx--5--xx--|
D|---9--9-----4-4----2-2----2-2----2--xx--2--xx--|
A|-----------------------------------------------|
e|-----------------------------------------------|

E|-----------------------------------------------|
B|---5-5----12-12----7-7----7-7----7--xx--7--xx--|
G|---5-5----12-12----7-7----7-7----7--xx--7--xx--|
D|---2-2----9-9------4-4----4-4----4--xx--4--xx--|
A|-----------------------------------------------|
e|-----------------------------------------------|
              {x mean palm mute}
Bridge:
So if you're too school for cool...

E|-----------------------------------------------|
B|--12----7----5--------5----12----7-------------|
G|--12----7----5--------5----12----7-------------|
D|--9-----4----2--------2----12----7-------------|
A|-----------------------------------------------|
e|-----------------------------------------------|
    {Strum each chord once and let each ring}





That's all folks! Comments and suggestions are welcomed! Thanks :)
Tap to rate this tab
 
# A B C D E F G H I J K L M N O P Q R S T U V W X Y Z