Song name
# A B C D E F G H I J K L M N O P Q R S T U V W X Y Z

Pink - Raise Your Glass tab

-------------------------------------------------------------------------------
			Raise Your Glass - Pink
-------------------------------------------------------------------------------
Tabbed by:Nacho
Email:rhythmguitarrocker@yahoo.com

Tuning: Standard

Verse
         G           D           C
e|---3--------2---------0----------------------------------------------------|
B|---3--------3---------1----------------------------------------------------|
G|---2--------2---------0----------------------------------------------------|
D|---1-----------------------------------------------------------------------|
A|---------------------------------------------------------------------------|
E|---------------------------------------------------------------------------|

Chorus
e|--------------------------------------------------------------------------|
B|--------------------------------------------------------------------------|
G|--------------------------------------------------------------------------|
D|------5----7---------5------------7---------------------------------------|
A|-5----3----5---------3------5-----5---------------------------------------|
E|-3--------------------------3---------------------------------------------|

Bridge---Just play the verse arpeggio. Listen to the song for the rhythm

************************************

| /   slide up
| \   slide down
| h   hammer-on
| p   pull-off
| ~   vibrato
| +   harmonic
| x   Mute note
| b   Bend
| pb  Pre-bend
| br  Bend release
| pbr Pre-bend release
| brb Bend release bend

************************************
Tap to rate this tab
 
# A B C D E F G H I J K L M N O P Q R S T U V W X Y Z