Song name
# A B C D E F G H I J K L M N O P Q R S T U V W X Y Z

Pink - Raise Your Glass tab

-----------------------------------------------------------------------------
                              Pink - Raise Your Glass
-----------------------------------------------------------------------------
Tabbed by: Bonkers McLounge
Tuning: Standard

Intro and Verse and Chorus
e |--------------------------------------------------------------------|
B |--------------------------------------------------------------------|
G |-------7-7--5-5--5-5--5xx5xx--5-5--12-12--7-7--7-7--7xx7xx----------|
D |--5-5--4-4--2-2--2-2--2xx2xx--2-2---9--9--4-4--4-4--4xx4xx----------|
A |--2-2--5-5--3-3--3-3--3xx3xx--3-3--10-10--5-5--5-5--5xx5xx----------|
E |--3-3---------------------------------------------------------------|

Why So Serious?
e|-----------|
B|-----------|
G|--7--------|
D|--5--------|
A|--7--------|
E|-----------|

3rd Verse (If your too school for cool)
e|-----------------------------------------|
B|-----------------------------------------|
G|------7---5------5---12---7--------------|
D|--5---4---2------2----9---4--------------|
A|--2---5---3------3---10---5--------------|
E|--3--------------------------------------|

Do It Big. Love Life and Never Give Up.
Tap to rate this tab
 
# A B C D E F G H I J K L M N O P Q R S T U V W X Y Z