Song name
# A B C D E F G H I J K L M N O P Q R S T U V W X Y Z

Pink - Heartbreaker tab

Pink - Heartbreaker (intro)

 
E||--------------------------------|--------------------------------|
B||--------------------------------|--------------------------------|
G||--------------------------------|--------------------------------|
D||--4h-6-6--6--6-6-6p-4-4--4--4-4-|--4h-6-6--6--6-6-6p-4-4--4--4-4-|
A||--4----4--4--4-4-4--x-x--x--x-x-|--7----7--7--7-7-4--x-x--x--x-x-|
E||--------------------5-5--5--5-5-|--0----0--0--0------7-7--7--7-7-|



--------------------------------|--------------------------------|
--------------------------------|--------------------------------|
--------------------------------|--------------------------------|
--4h-6-6--6--6-6-6p-4-4--4--4-4-|--4h-6-6--6--6-6-6p-4-4---------|
--4----4--4--4-4-4--x-x--x--x-x-|--7----7--7--7-7-4--x-x-----x-x-|
--------------------5-5--5--5-5-|--0----0--0--0------7-7---------|


  
--------------------------------|--------------------------------|
--------------------------------|--------------------------------|
--------------------------------|--------------------------------|
--4h-6-6--6--6-6-6p-4-4--4--4-4-|--4h-6-6--6--6-6-6p-4-4--4--4-4-|
--4----4--4--4-4-4--x-x--x--x-x-|--7----7--7--7-7-4--x-x--x--x-x-|
--------------------5-5--5--5-5-|--0----0--0--0------7-7--7--7-7-|


   
--------------------------------|-------------------------------||
--------------------------------|-------------------------------||
--------------------------------|-------------------------------||
--4h-6-6--6--6-6-6p-4-4--4--4-4-|--4h-6-6--6--6-6-6p-4-4--4-----||
--4----4--4--4-4-4--x-x--x--x-x-|--7----7--7--7-7-4--x-x--x-----||
--------------------5-5--5--5-5-|--0----0--0--0------7-7--7-----||

The verses are also played like this
Tap to rate this tab
 
# A B C D E F G H I J K L M N O P Q R S T U V W X Y Z