Pink - Raise Your Glass tab

Erm, i just decided to give this song a listen and it's pretty darn good!...then decided 
to have a go at tabbing it and i'm quite surprised how it's my first tab as well, 
completely random...see what you think :)




Intro:
e|-------------------------------------------------|
B|---12-12----7-7----5-5--5-5--5--xx-5--xx--5--xx--|
G|---12-12----7-7----5-5--5-5--5--xx-5--xx--5--xx--|
D|---12-12----7-7----5-5--5-5--5--xx-5--xx--5--xx--|
A|---10-10----5-5----3-3--3-3--3--xx-3--xx--3--xx--|
E|-------------------------------------------------|


e|----------------------------------------|
B|---8-8--7-7--7-7--7--xx-7--xx--7--xx----|
G|---7-7--7-7--7-7--7--xx-7--xx--7--xx----|
D|---7-7--7-7--7-7--7--xx-7--xx--7--xx----|
A|---9-9--5-5--5-5--5--xx-5--xx--5--xx----|
E|----------------------------------------|

Repeated 3 times, the fourth time goes as follows before the chorus:

e|-------------------------------------------~~~--|
B|---12-12----7-7----5-5--5-5--5--xx-5--xx--5~~~--|
G|---12-12----7-7----5-5--5-5--5--xx-5--xx--5~~~--|
D|---12-12----7-7----5-5--5-5--5--xx-5--xx--5~~~--|
A|---10-10----5-5----3-3--3-3--3--xx-3--xx--3~~~--|
E|------------------------------------------------|


"Why so serious...?"
Chorus:
e|----------------------------------------------------------|
B|----------------------------------------------------------|
G|-------------7--7----5------xx--5--5----9--9-----7--7-----|
D|-----5--5----7--7----5(x8)--xx--5--5----9--9-----7--7(x8)-|
A|-----5--5----5--5----3------xx--3--3----7--7-----5--5-----|
E|-----3--3-------------------------------------------------|

This is repeated 3 times, then returning back to the intro riff...


e|-------------------------------------------------|
B|---12-12----7-7----5-5--5-5--5--xx-5--xx--5--xx--|
G|---12-12----7-7----5-5--5-5--5--xx-5--xx--5--xx--|
D|---12-12----7-7----5-5--5-5--5--xx-5--xx--5--xx--|
A|---10-10----5-5----3-3--3-3--3--xx-3--xx--3--xx--|
E|-------------------------------------------------|


e|----------------------------------------|
B|---8-8--7-7--7-7--7--xx-7--xx--7--xx----|
G|---7-7--7-7--7-7--7--xx-7--xx--7--xx----|
D|---7-7--7-7--7-7--7--xx-7--xx--7--xx----|
A|---9-9--5-5--5-5--5--xx-5--xx--5--xx----|
E|----------------------------------------|

Repeated 3 times, the fourth time goes as follows before the chorus:

e|-------------------------------------------~~~--|
B|---12-12----7-7----5-5--5-5--5--xx-5--xx--5~~~--|
G|---12-12----7-7----5-5--5-5--5--xx-5--xx--5~~~--|
D|---12-12----7-7----5-5--5-5--5--xx-5--xx--5~~~--|
A|---10-10----5-5----3-3--3-3--3--xx-3--xx--3~~~--|
E|------------------------------------------------|

"Why so serious....?"

Chorus:
e|----------------------------------------------------------|
B|----------------------------------------------------------|
G|-------------7--7----5------xx--5--5----9--9-----7--7-----|
D|-----5--5----7--7----5(x8)--xx--5--5----9--9-----7--7(x8)-|
A|-----5--5----5--5----3------xx--3--3----7--7-----5--5-----|
E|-----3--3-------------------------------------------------|

This is repeated four times before going into the breakdown...


Clean Ring:
e|----------------------------------------------------------|
B|-------------7~~~----5~~~----5----8----7~~~---------------|
G|----4~~~-----7~~~----5~~~----5----9----7~~~---------------|
D|----5~~~-----7~~~----5~~~----5----9----7~~~---------------|
A|----5~~~-----5~~~----3~~~----3----7----5~~~---------------|
E|----3~~~--------------------------------------------------|


Repeated 3 times, The third time is....

e|----------------------------------------------------------|
B|-------------7~~~----5~~~----5~~~-------------------------|
G|----4~~~-----7~~~----5~~~----5~~~-------------------------|
D|----5~~~-----7~~~----5~~~----5~~~-------------------------|
A|----5~~~-----5~~~----3~~~----3~~~-------------------------|
E|----3~~~--------------------------------------------------|

Kicking back into the last chorus!...
Chorus:
e|-----------------------------------------------------------------|
B|-----------------------------------------------------------------|
G|-------------7--7----5------xx--5--5----9--9-----7--7--------5---|
D|-----5--5----7--7----5(x8)--xx--5--5----9--9-----7--7(x8)----5---|
A|-----5--5----5--5----3------xx--3--3----7--7-----5--5--------3---|
E|-----3--3--------------------------------------------------------|

| ~   harmonic
| x   Mute note

Yep, so that's it! Give it a rating and a few comments please :)

Thanks.
Tap to rate this tab
 
# A B C D E F G H I J K L M N O P Q R S T U V W X Y Z