Pink - Fuckin Perfect tab

-------------------------------------------------------------------------------
			  Pink - Fuckin Perfect
-------------------------------------------------------------------------------
Tabbed by:Guitar-DRW
Email:-

Tuning:Normal
                  G            D          Em            C
e|-------------------------0------------------0-3---3---0.-------------------|
B|----------------0-3--------3------------0-3---------3----------------------|
G|-------0-2.------------------2.-----0-2------------------------------------|
D|-----------------------------0.--------------------------------------------|
A|------------------------------------------------------3--------------------|
E|----------------3-----------------------0----------------------------------|
                  G            D          Em            C
e|-------------------------0------------------0-3---3---0.-------------------|
B|----------------0-3--------3------------0-3---------3----------------------|
G|-------0-2.------------------2.-----0-2------------------------------------|
D|-----------------------------0.--------------------------------------------|
A|------------------------------------------------------3--------------------|
E|----------------3-----------------------0----------------------------------|
             G                 D              Em          C               G
e|---------------------------------------------------------------------------|
B|-----------------------------------------------------------1--1------------|
G|-------0---0--0-0-0-2-0---0--0-0-0-2-0---0--0-0-0-2-0----------------0--0-0|
D|---------4--------------4-0------------4--------------0----0--0--0-4-------|
A|--------------------------------------------------------3------------------|
E|-----------3-----------------------------0---------------------------3-----|
              D              Em          C      G             D         Em
e|---------------------------------------------------------------------------|
B|--------------------------------------------------0-------------0----------|
G|-0-2-0---0--0-0-0-2-0---0--0-0-0-2-0----------0202-----2-0--0202--2-0-0.---|
D|-------4-0------------4--------------0----------------------0--------------|
A|---------------------------------------3-----------------------------------|
E|------------------------0---------------------3-----------------------0.---|
                   C     G         D               Em        C       
e|-----------------------35357-5-3-35357-5-3-3.----0.----3-5-3.----0.--------|
B|---------------------------------------------------------------------------|
G|-------0-2-0.----------0---------------------------------------------------|
D|-2.--------------2.--------------0-----------------------------------------|
A|-----------3.----------------------------------------------3.--------------|
E|-------------------------------------------0.------------------------------|
                  G            D          Em            C
e|-------------------------0------------------0-3---3---0.-------------------|
B|----------------0-3--------3------------0-3---------3----------------------|
G|-------0-2.------------------2.-----0-2------------------------------------|
D|-----------------------------0.--------------------------------------------|
A|------------------------------------------------------3--------------------|
E|----------------3-----------------------0----------------------------------|
                  G            D          Em            C
e|-------------------------0------------------0-3---3---0.-------------------|
B|----------------0-3--------3------------0-3---------3----------------------|
G|-------0-2.------------------2.-----0-2------------------------------------|
D|-----------------------------0.--------------------------------------------|
A|------------------------------------------------------3--------------------|
E|----------------3-----------------------0----------------------------------|
             G                 D              Em          C               G
e|---------------------------------------------------------------------------|
B|-----------------------------------------------------------1--1------------|
G|-------0---0--0-0-0-2-0---0--0-0-0-2-0---0--0-0-0-2-0----------------0--0-0|
D|---------4--------------4-0------------4--------------0----0--0--0-4-------|
A|--------------------------------------------------------3------------------|
E|-----------3-----------------------------0---------------------------3-----|
              D              Em          C      G             D         Em
e|---------------------------------------------------------------------------|
B|--------------------------------------------------0-------------0----------|
G|-0-2-0---0--0-0-0-2-0---0--0-0-0-2-0----------0202-----2-0--0202--2-0-0.---|
D|-------4-0------------4--------------0----------------------0--------------|
A|---------------------------------------3-----------------------------------|
E|------------------------0---------------------3-----------------------0.---|
                   C     G         D               Em        C                    G     
e|-----------------------35357-5-3-35357-5-3-3.----0.----3-5-3.----0.-------------3-|
B|--------------------------------------------------------------------------------0-|
G|-------0-2-0.----------0-----------------------------------------------0-2-0----0-|
D|-2.--------------2.--------------0----------------------------------------------0-|
A|-----------3.----------------------------------------------3.-------------------2-|
E|-------------------------------------------0.-----------------------------------3-|
Tap to rate this tab
 
# A B C D E F G H I J K L M N O P Q R S T U V W X Y Z