Pink - Perfect tab

e -------------0-----------------0-3-3---0--------------0-----------------0-3-3-|
b ------0-3------3-----------0-3---3-3-3---------0-3------3-----------0-3---3-3-|
g --0-2------------2-----0-2-----------------0-2------------2-----0-2-----------|
d------------------0----------------------------------------0-------------------|
a ------------------------------------------------------------------------------|
e ------------------------------------------------------------------------------|

intro continues:

e----0-------------------------------------------------------------------------|
b -3---------------------------------------------------------------------------|
g -----------------------------------------------------------------------------|
d -----------------------------------------------------------------------------|
a -----------------------------------------------------------------------------|
e -----------------------------------------------------------------------------|

Hope this is a good starter for you!
Tap to rate this tab
 
# A B C D E F G H I J K L M N O P Q R S T U V W X Y Z