Pink - Raise Your Glass tab

This is my first tab, its more simplified than the others that were submitted. Made it 
easier for beginners like myself to play

Verse

E |--------------------------------------------------------------------|
B |--------------------------------------------------------------------|
G |--------------------------------------------------------------------|
D |-9---9---4--4--2--2--2--2--2xx2-------------------------------------|
A |-10--10--5--5--3--3--3--3--3xx3-------------------------------------|
E |--------------------------------------------------------------------|

E |--------------------------------------------------------------------|
B |--------------------------------------------------------------------|
G |--------------------------------------------------------------------|
D |-2--2--5--5--4--4--4--4--4xx4---------------------------------------|
A |-3--3--7--7--5--5--5--5--5xx5---------------------------------------|
E |--------------------------------------------------------------------|

Chorus (strumming pattern
G       C
D D U U D D U U D U D

C   Em  D
D D U U D D U U D U D
Tap to rate this tab
 
# A B C D E F G H I J K L M N O P Q R S T U V W X Y Z