Guitaretab - guitar tabs
Song name
# A B C D E F G H I J K L M N O P Q R S T U V W X Y Z

Pink - Dont Let Me Get Me tab

I made few months ago and I\'m a totally novice at guitar (now, I have been playing for 
months), but sounds good. ^_^

[ Tab from: http://www.guitaretab.com/p/pink/29165.html ]
|-------11-------------8-----8-----------------------------------------------|
|-----------11--9--8~-----8-----8~-------------------------------------------|
|--4/9------------------------------1010--10/12--10--8--8~-------8h9--8~~~--|
|------------------------------------------------------------8h9-------------|
|----------------------------------------------------------------------------|
|----------------------------------------------------------------------------|


|-------------------------------------11h13--11h13--11~~----------------------|
|---------------------13--11~--11h13------------------------------------------|
|--10/12--10--8--12~----------------------------------------------------------|
|-----------------------------------------------------------------------------|
|-----------------------------------------------------------------------------|
|-----------------------------------------------------------------------------|
Related for Dont Let Me Get Me tab