Song name
# A B C D E F G H I J K L M N O P Q R S T U V W X Y Z

Pink - Hush chords

Highlighted       Show chord diagrams
Artist:A Pink
Song:Hush Hush

Intro:(1st guitar)
      (2nd guitar)G#m E B F#

e|-9-11----9-11---9-11--9-11-9----|
B|------12-----12-----12----------|
G|--------------------------------|
D|--------------------------------| x2
A|--------------------------------|
E|--------------------------------|


e|-9-11----9-11---9-11--9---------|
B|------12-----12-----12----------|
G|--------------------------------|
D|--------------------------------| 
A|--------------------------------|
E|--------------------------------|

Hush, Hush, Hush, Hush

Hush, Hush, Hush, Hush

Hush, Hush, Hush, Hush

G#m                    E                  B       F#                              
Jakku saenggakna neomu ddeolligo seollego Ou, Ou, Ou
G#m                     E                   B              F#
Ireon mameun cheoeumiya dugeundaego nanriya maeumi, maeumi Ou

E              F#
Hoksirado nal mollabolkkabwa
B                           G#m
Nae mameul ireohke sum gigo issneunde
E
Jeoldae malhajima jamkkanman swit!
F#
Ajik nareul johahaji anheul sudo issjanha

Ou! Ou!

Chorus:

G#m                   E
Hush, Hush, Huh-Hush, Hush
             B                      F#
Ajigeun anya gidareyobollae jom deo barabollae
G#m                   E
Hush, Hush, Huh-Hush, Hush
              B               F#
Naega meonjeo malhalgeoya deo jikyeobolgeoya

Oh~


e|-9-11----9-11---9-11--9-11-9----|
B|------12-----12-----12----------|
G|--------------------------------|
D|--------------------------------| x2
A|--------------------------------|
E|--------------------------------|

e|-9-11----9-11---9-11--9---------|
B|------12-----12-----12----------|
G|--------------------------------|
D|--------------------------------| 
A|--------------------------------|
E|--------------------------------|

Hush, Hush, Hush, Hush

Hush, Hush, Hush, Hush

G#m                 E            B                   F#
Chyeodabojima jakku mal geoljima geureom nunchichaejanha (Oh every day)
G#m                 E                    B           F#
Eolguli ppalgaejigo meoriga meonghaejyeo himi ppajyeowa

Oh, Oh

E             F#
Hoksirao neol majuchindamyeon
B                  G#m
Dolaseoseo amu mal mothaltende
E
Ajik malhajima jamkkanman swit!
F#
Ajik nareul moreundago hal sudo issjanha

Ou! Ou!

Chorus:

G#m                   E
Hush, Hush, Huh-Hush, Hush
             B                      F#
Ajigeun anya gidareyobollae jom deo barabollae
G#m                   E
Hush, Hush, Huh-Hush, Hush
              B               F#
Naega meonjeo malhalgeoya deo jikyeobolgeoya

Oh~

G#m
I donít know you who are
E
I donít even know your name
B
I donít know what you say
F#
Hush, Hush, Hush, Hush
G#m
I donít know you who are
E
I donít even know your name
F#
I donít know what you say
F#
Hush, Hush, Hush, Hush

E            F#  
Ireohke ggumeseorado
B       G#m
Hamkkeramyeon
E             F#
Nan joha ireohkerado
G#m
Gyeote~
E
With you~

E             F#
Hoksirao neol majuchindamyeon
B                  G#m
Dolaseoseo amu mal mothaltende
E
Ajik malhajima jamkkanman swit!
F#
Ajik nareul moreundago hal sudo issjanha

Chorus:

G#m                   E
Hush, Hush, Huh-Hush, Hush
             B                      F#
Ajigeun anya gidareyobollae jom deo barabollae
G#m                   E
Hush, Hush, Huh-Hush, Hush
              B               F#
Naega meonjeo malhalgeoya deo jikyeobolgeoya

e|-9-11----9-11---9-11--9-11-9----|
B|------12-----12-----12----------|
G|--------------------------------|
D|--------------------------------| x2
A|--------------------------------|
E|--------------------------------|

e|-9-11----9-11---9-11--9---------|
B|------12-----12-----12----------|
G|--------------------------------|
D|--------------------------------| 
A|--------------------------------|
E|--------------------------------|

Hush, Hush, Hush, Hush

Hush, Hush, Hush, Hush

Hush, Hush, Hush, Hush
Tap to rate this tab
# A B C D E F G H I J K L M N O P Q R S T U V W X Y Z