Song name
# A B C D E F G H I J K L M N O P Q R S T U V W X Y Z

Pink - How Come Youre Not Here tab

I'm not sure about the chorus/bridge/ending but the intro/verses are basically this:

intro/1st verse

e|--------------------------------------------|
B|--------------------------------------------|
G|-------2---------4---------2---------4------|
D|-4-4-4-2---4-4-4-4---4-4-4-2---4-4-4-4-2~---|  x4
A|-4-4-4-0---4-4-4-2---4-4-4-0---4-4-4-2-2~---|
E|-2-2-2-----2-2-2-----2-2-2-----2-2-2---0~---|

e|---------------------------------------|
B|---------------------------------------|
G|-------2---------4---------2-----------|
D|-4-4-4-2---4-4-4-4---4-4-4-2---4-4-4---|
A|-4-4-4-0---4-4-4-2---4-4-4-0---4-4-4---|
E|-2-2-2-----2-2-2-----2-2-2-----2-2-2---|


chorus


post-chorus/2nd verse

B|--------------------------------------------|
G|-------2---------4---------2---------4------|
D|-4-4-4-2---4-4-4-4---4-4-4-2---4-4-4-4-2~---|  x4
A|-4-4-4-0---4-4-4-2---4-4-4-0---4-4-4-2-2~---|
E|-2-2-2-----2-2-2-----2-2-2-----2-2-2---0~---|

e|---------------------------------------|
B|---------------------------------------|
G|-------2---------4---------2-----------|
D|-4-4-4-2---4-4-4-4---4-4-4-2---4-4-4---|
A|-4-4-4-0---4-4-4-2---4-4-4-0---4-4-4---|
E|-2-2-2-----2-2-2-----2-2-2-----2-2-2---|

chorus
bridge
chorus
ending
Tap to rate this tab
# A B C D E F G H I J K L M N O P Q R S T U V W X Y Z