Song name
# A B C D E F G H I J K L M N O P Q R S T U V W X Y Z

Pink - Just Give Me A Reason tab

-----------------------------------------------------------------------------
                      Just Give Me A Reason - Pink
-----------------------------------------------------------------------------




Tabbed by: mikel jari
E-mail: jari.ramirez.ymail.com (FB)




(Improvising the Keyboard intro to gutar)


Intro: Em, A, D, G, C, Bm, Am




e|---------------5----------------------|
B|-8-8-8----7--5---7--7/8---------------|
G|-------------------------7------------|
D|--------------------------------------|
A|-7-7-7----5--4---5--------------------|
E|--------------------------------------|


e|--------------------------------------|
B|--------------------------------------|
G|-5---4---2-----------7----------------|
D|---------2-------7h9----9p7---5~------|
A|-3---2---0----------------------------|
E|--------------------------------------|
Tap to rate this tab
 
# A B C D E F G H I J K L M N O P Q R S T U V W X Y Z