Song name
# A B C D E F G H I J K L M N O P Q R S T U V W X Y Z

Pink - Just Give Me A Reason tab

I couldn't figure out the whole song so here's the chorus. :)

Just give me a reason, just a little bit's enough.

E|-7-7-3-3---7-7-5-5-2-2--|
B|--------3-3-----------1-|
G|------------------------|
D|------------------------|
A|------------------------|
E|------------------------|

Just a second we're not broken, just bent,

E|-5-5-3-3-3-3-3-2-0-2-|
B|---------------------|
G|---------------------|
D|---------------------|
A|---------------------|
E|---------------------|

and we could learn to love again.

E|----8-8-7-5-3-7-----|
B|-3-3----------------|
G|--------------------|
D|--------------------|
A|--------------------|
E|--------------------|

Second time go like this:

and we could learn to love again.

E|----8-8-7-5-3-7-----|
B|-3-3----------------|
G|--------------------|
D|--------------------|
A|--------------------|
E|--------------------|

That's it. Adjustments are always welcome!
Nameless.G. (Nameless Guitarist)
Tap to rate this tab
# A B C D E F G H I J K L M N O P Q R S T U V W X Y Z