Song name
# A B C D E F G H I J K L M N O P Q R S T U V W X Y Z

Pink - Just Give Me A Reason tab

------------------------------------------------------------------------------
Just give me a reason tab - Pink
------------------------------------------------------------------------------

Tuning:Standard

Intro
e|------------------5--------------------------------------------------------|
B|-8--8--8--7--5---------7------8--------------------------------------------|
G|---------------------------------7--5--------4-----------------4h7--4------|
D|------------------------------------------------------7---------------7p5--|
A|---------------------------------------------------------------------------|
E|---------------------------------------------------------------------------|

Verse x2
e|---------------------------------------------------------------------------|
B|----------------------------------------------5-----5----------------------|
G|-4--4-4-4---------4-5----5--5--5--5--------------------7-------4--4--------|
D|-------------5--7--------------------5-----5----------------5--------------|
A|---------------------------------------------------------------------------|
E|---------------------------------------------------------------------------|

Pre-chorus                          x3
e|------------------5----------------||--------------------------|
B|-8--8--8--7--5---------7------8----||--------------------------|
G|---------------------------------7-||-5--------4---------------|
D|-----------------------------------||-------------------7------|
A|-----------------------------------||--------------------------|
E|-----------------------------------||--------------------------|

Chorus x2
e|--7--7--------------7--7--5--5-------------5--5---------------------------|
B|--------8--8--------------------7--7--5----------8--8--8--8--8--7--5--7---|
G|--------------7--7--------------------------------------------------------|
D|--------------------------------------------------------------------------|
A|--------------------------------------------------------------------------|
E|--------------------------------------------------------------------------|

e|----------8---7-5-8-7--|
B|-----------------------|
G|-7--7--7---------------|
D|-----------------------|
A|-----------------------|
E|-----------------------|
Tap to rate this tab
 
# A B C D E F G H I J K L M N O P Q R S T U V W X Y Z