Song name
# A B C D E F G H I J K L M N O P Q R S T U V W X Y Z

Pink - Beam Me Up tab

I Don't if it's exactly like this but it sounds preatty similar...

Enjoy!

Capo 5

CHords Solo: A D A D A D




e--------------------------------------------------------------|
B----------------------------------------------7-5-------------|
G---5/7--5-3-2-1-0----------------------------7---7-5----------|
D---5/7--5-3-2-1-1-1/2-1----------------6-8-6------------5-7-5-|
A------------------------3-1---------5-7--------------5/6------|
E---------------------------3-1-3------------------------------|

e---------------------------------------------------|
B---------------------------------------------------|
G--------4-6-6/8-6-4-6------------------------------|
D-----4-6-------------6-4---------------------------|
A--3-5-------------------6--------------------------|
E---------------------------------------------------|
Tap to rate this tab
 
# A B C D E F G H I J K L M N O P Q R S T U V W X Y Z