Guitaretab - guitar tabs
Song name
# A B C D E F G H I J K L M N O P Q R S T U V W X Y Z
Home / P / Pink / Cuz I Can tab

Pink - Cuz I Can tab

Cuz I Can
By P!nK

Tabbed by :PinK4sand(Sandi) from Indonesia :P
E-mail : Pink4sand@hotmail.com

e|---12------------------12---12---12---12-x-----|
B|--------------------------------------12-x-----|
G|--------------------------------------12-x-----|
D|--------14---14---14---------------------------|
A|-----------------------------------------------|
E|-----------------------------------------------|

e|---12---12---12---12---12---12---12---12-------|
B|---13---13---13---13---13---13---13---13-------|
G|---12---12---12---12---14---14---14---14-------|
D|-----------------------------------------------|
A|-----------------------------------------------|
E|-----------------------------------------------|

e|---12---12---12---12---12---12---12---12-x-----|
B|---12---12---12---12---12---12---12---12-x-----|
G|-----------------------12---12---12---12-x-----|
D|-----------------------------------------------|
A|-----------------------------------------------|
E|-----------------------------------------------|

e|---12------------------12---12---12---12-------|
B|---13---13---13---13---13---13---13---13-------|
G|---12---12---12---12---14---14---14---14-------|
D|--------14---14---14---------------------------|
A|-----------------------------------------------|
E|-----------------------------------------------|

                                       P.i.n.k P.i.m.p ...
e|---12---12---12---12---12---12---12------------|
B|---12---12---12---12---12---12---12------------|
G|-----------------------12---12---12---9-9------|
D|--------------------------------------9-9------|
A|--------------------------------------7-7------|
E|-----------------------------------------------|

I'm back again I know we all missed me...   Im so so sick...
e|-----------------------------------------------|
B|-----------------------------------------------|
G|--------------------------------------9-9------|
D|--------------------------------------9-9------|
A|--------------------------------------7-7------|
E|-----------------------------------------------|

Cant handle it, Yeah I talk S***, Just deal with it...

My rims are 23inch...        and they're black on black...
e|---12---------------12---12---12---12---12---12|
B|-----------------------------------------------|
G|--------9---9---9------------------------------|
D|-----------------------------------------------|
A|-----------------------------------------------|
E|-----------------------------------------------|

No there nothis! ...               Diomands...
e|---12---12---12---12---12---12---12---12---12--|
B|-----------------------------------------------|
G|-----------------------------------------------|
D|-----------------------------------------------|
A|-----------------------------------------------|
E|-----------------------------------------------|
[ Tab from: http://www.guitaretab.com/p/pink/74243.html ]
  all over, my T's...           You can try and try ...
e|---12---12---12---12---12---12---12---12---12--|
B|-----------------------------------------------|
G|-----------------------------------------------|
D|-----------------------------------------------|
A|-----------------------------------------------|
E|-----------------------------------------------|

   you can't be me !...
e|---12---12---12---12---------------------------|
B|-----------------------------------------------|
G|-----------------------------------------------|
D|-----------------------------------------------|
A|-----------------------------------------------|
E|-----------------------------------------------|

chorus:

   So ill cash my cheques and place my bets...
e|-----------------------------------------------|
B|-----------------------------------------------|
G|-------5---5---5---5---------------------------|
D|-------5---5---5---5---7---7---7---7-----------|
A|-------3---3---3---3---7---7---7---7-----------|
E|-----------------------5---5---5---5-----------|

     and hope ill always win...
e|-----------------------------------------------|
B|-----------------------------------------------|
G|-------9---9---9---9---9---9---9---9-----------|
D|-------9---9---9---9---9---9---9---9-----------|
A|-------7---7---7---7---7---7---7---7-----------|
E|-----------------------------------------------|

   Even if i donít...       im F***** Because
e|-----------------------------------------------|
B|-----------------------------------------------|
G|-------5---5---5---5---------------------------|
D|-------5---5---5---5---7---7---7---7-----------|
A|-------3---3---3---3---7---7---7---7-----------|
E|-----------------------5---5---5---5-----------|


   I live a life of sin...
e|-----------------------------------------------|
B|-----------------------------------------------|
G|-------9---9---9---9---9---9---9---9-----------|
D|-------9---9---9---9---9---9---9---9-----------|
A|-------7---7---7---7---7---7---7---7-----------|
E|-----------------------------------------------|

   But its alright... I dont give a damn!...
e|-----------------------------------------------|
B|-----------------------------------------------|
G|-------5---5---5---5---------------------------|
D|-------5---5---5---5---7---7---7---7-----------|
A|-------3---3---3---3---7---7---7---7-----------|
E|-----------------------5---5---5---5-----------|

  I dont play your rules I make my own...
e|-----------------------------------------------|
B|-----------------------------------------------|
G|-------9---9---9---9---9---9---9---9-----------|
D|-------9---9---9---9---9---9---9---9-----------|
A|-------7---7---7---7---7---7---7---7-----------|
E|-----------------------------------------------|

        Tonight ill do what i want...
e|-----------------------------------------------|
B|-----------------------------------------------|
G|-------5---5---5---5---7---7---7---7-----------|
D|-------5---5---5---5---7---7---7---7-----------|
A|-------3---3---3---3---5---5---5---5-----------|
E|-----------------------------------------------|

     Cuz I can (Ice cream ,ice cream , we all want ice cream)
e|-----------------------------------------------|
B|-----------------------------------------------|
G|-------9---9---9---9---9---9---9---9-9---------|
D|-------9---9---9---9---9---9---9---9-9---------|
A|-------7---7---7---7---7---7---7---7-7---------|
E|-----------------------------------------------|
Related for Cuz I Can tab