Song name
# A B C D E F G H I J K L M N O P Q R S T U V W X Y Z

Pink - I Got Money Now tab

                                 I Got Money Now
Well, this is pretty close and i'm sure you'll give me credit.
Standard Tuning. Each of the little lines represents one beat. Or you can just play 
to the song.


E:----------------------------------------------------------------|
B:------1-------1-------0-------0-----1-------1------0---------0--|
G:-----2--2----0--0-0--0--0-0--0-----2--2----0-0-0--0--0-0----0---|
D:----2-------2----2--0----0--0-----2-------2---2--0----0----0----|
A:---0-----023---------------------0-----023----------------------|
E:-------------------3-------3--------------------3-------3-------|

E:*---1-------0-------1---1------------------------------------------| Keep
B:*--1--1-1--1--1-1--2--2-1Repeat------1-------1------0--------0-----| Going
G:*-2----2--2----2--2----22from-------2--2----0-0-0--0--0-0---2--2-2-| With
D:*3-------2-------0------0the-------2-------2---2--0----0---2----2--| The
A:*------------------------*--------0-----023------------------------| Song
E:*------------------------------------------------3-------0---------|
Tap to rate this tab
# A B C D E F G H I J K L M N O P Q R S T U V W X Y Z