Song name
# A B C D E F G H I J K L M N O P Q R S T U V W X Y Z

Pink - One That Got Away Live tab

-------------------------------------------------------------------------------
		THE ONE THAT GOT AWAY (Live Version) - Pink
-------------------------------------------------------------------------------
Tabbed by: spithray
Email: spithray@ hotmail.com

Tuning: Dropped D.

The tab for the verse part is pretty much like this:

e|-----------|----3-0------|------2-0------|------2-0----|--3-3-------------------|
B|-----------|----2-2-2-2--|--3-3-3-3-3-3--|--3-3-3-3-3--|--3-3-------------------|
G|-----------|----3-3-3-3--|--0-0-0-0-0-0--|--0-0-0-0-0--|--0-0-------------------|
D|-----------|----0-0-0-0--|---------------|--0-0-0-0-0--|--0-0-------0H2P0-------|
A|-----------|-------------|--3-3-3-3-3-3--|--5-5-5-5-5--|--5-5-3H5P3-------------|
D|--3*-0-3*--|--0----------|---------------|--5-5-5-5-5--|--5-5-------------3H5P3-|


e|----3-0------|------2-0------|------2-0----|--3-3------------|
B|----2-2-2-2--|--3-3-3-3-3-3--|--3-3-3-3-3--|--3-3------------|
G|----3-3-3-3--|--0-0-0-0-0-0--|--0-0-0-0-0--|--0-0------------|
D|----0-0-0-0--|---------------|--0-0-0-0-0--|--0-0------------|
A|-------------|--3-3-3-3-3-3--|--5-5-5-5-5--|--5-5------------|
D|--0----------|---------------|--5-5-5-5-5--|--5-5---3*-0-3*--|

*Bend these notes 1/4 of a fret.

The chord sequence for the chorus is:

e|--0---0---0---0---0---0---0---0---------------------------|
B|--0---2---3---2---0---2---3---2---------------------------|
G|--0---2---4---2---0---2---4---2---------------------------|
D|--2---2---4---2---2---2---4---2---------------------------|
A|--2---0---5---0---2---0---5---0---------------------------|
D|--2---------------2---------------------------------------|

I accept that this is by no means perfect but it should be enough to get you started.
Tap to rate this tab
# A B C D E F G H I J K L M N O P Q R S T U V W X Y Z