Song name
# A B C D E F G H I J K L M N O P Q R S T U V W X Y Z

Pink - Long Way To Happy tab

Help us improve GuitareTab! Take a short survey!
artist: pink
album: i'm not dead
song: long way to happy

tuning: E,A,D,G,B,e
capo 1st fret


Verse                                                            
|------------------------------x-x-x-x-x-x-x-x--|            
|------------------------------1-1-1-1-1-1-1-1--|
|------------------------------2-2-2-2-2-2-2-2--|
|----(rest)--------------------2-2-2-2-2-2-2-2--|
|------------------------------0-0-0-0-0-0-0-0--|
|------------------------------x-x-x-x-x-x-x-x--|
(one night………..for me) 

|------------------------------x-x-x-x-x-x-x-x--|
|------------------------------1-1-1-1-1-1-1-1--|
|------------------------------2-2-2-2-2-2-2-2--|
|----(rest)--------------------2-2-2-2-2-2-2-2--|
|------------------------------0-0-0-0-0-0-0-0--|
|------------------------------x-x-x-x-x-x-x-x--|
(just a……………to sleep)

|------------------------------x-x-x-x-x-x-x-x--|
|------------------------------1-1-1-1-1-1-1-1--|
|------------------------------2-2-2-2-2-2-2-2--|
|----(rest)--------------------2-2-2-2-2-2-2-2--|
|------------------------------0-0-0-0-0-0-0-0--|
|------------------------------x-x-x-x-x-x-x-x--|
(no more………….I meet) 

|------------------------------x-x-x-x-x-x-x-x--|
|------------------------------1-1-1-1-1-1-1-1--|
|------------------------------2-2-2-2-2-2-2-2--|
|----(rest)--------------------2-2-2-2-2-2-2-2--|
|------------------------------0-0-0-0-0-0-0-0--|
|------------------------------x-x-x-x-x-x-x-x--|
(thanks…………….to me………….but oh)

Pre-chorus 
|--x-x-x-x-x-x-x--2-2-2-2-2-2-2—-x-x-x-x-x-x-x--x-x-x-x--2-2-2-|
|--1-1-1-1-1-1-1--3-3-3-3-3-3-3--1-1-1-1-1-1-1--1-1-1-1--3-3-3-|
|--2-2-2-2-2-2-2--2-2-2-2-2-2-2--2-2-2-2-2-2-2--0-0-0-0--2-2-2-|
|--2-2-2-2-2-2-2--0-0-0-0-0-0-0--2-2-2-2-2-2-2--2-2-2-2--0-0-0-|
|--0-0-0-0-0-0-0--x-x-x-x-x-x-x--0-0-0-0-0-0-0--3-3-3-3--x-x-x-|
|--x-x-x-x-x-x-x--x-x-x-x-x-x—x--x-x-x-x-x-x-x—-x-x-x-x--x-x-x-|
(I’ll keep on rolling down this road but I’ve got a bad, bad feeling)

Chorus
|----------------------------------------------|
|----------------------------------------------|
|---------------5-5-5-5---------------7-7-7-7--|  X2
|--2-2-2-2-2-2--5-5-5-5--5-5-5-5-5-5--7-7-7-7--|
|--2-2-2-2-2-2--3-3-3-3--5-5-5-5-5-5--5-5-5-5--|
|--0-0-0-0-0-0-----------3-3-3-3-3-3-----------|
(it’s gonna take……………..)

|--------------------------------------------------|
|--------------------------------------------------|
|---------------5-5-x-x-x-x---------------7-7-x-/--|  
|--2-2-x-x-x-x--5-5-x-x-x-x--5-5-x-x-x-x--7-7-x-/--|
|--2-2-x-x-x-x--3-3-x-x-x-x--5-5-x-x-x-x--5-5-x-/--|
|--0-0-x-x-x-x------x-x-x-x--3-3-x-x-x-x------x-/--|
(left in the pieces…………….)

|--x-x-x-x-x-x--x--x-x-x-x-x-x-x-x--|
|--1-1-1-1-1-1--1--1-1-1-1-1-1-1-1--|
|--2-2-2-2-2-2--0--0-0-0-0-0-0-0-0--|
|--2-2-2-2-2-2--0--2-2-2-2-2-2-2-2--|
|--0-0-0-0-0-0--2--3-3-3-3-3-3-3-3--|
|--x-x-x-x-x-x--x--x-x-x-x-x-x-x-x--|
(keep on rollin’…..)

Verse 2  (distrotion guitar 2)                       (clean guitar 1)
|---------------------------------------------------|-x-x-x-x-x-x-x-x|
|---------------------------------------------------|-1-1-1-1-1-1-1-1|
|-x-12/14--14-14--14--9-9-x-9-x--12/14-14-14--14-14-|-2-2-2-2-2-2-2-2|
|-x-12/14--14-14--14--9-9-x-9-x--12/14-14-14--14-14-|-2-2-2-2-2-2-2-2|
|-x-10/12--12-12--12--7-7-x-7-x--10/12-12-12--12-12-|-0-0-0-0-0-0-0-0|
|-x---------------------------x---------------------|-x-x-x-x-x-x-x-x|
(left my childhood behind.......................)

(distrotion guitar 2)                       (clean guitar 1)
|---------------------------------------------------|-x-x-x-x-x-x-x-x|
|---------------------------------------------------|-1-1-1-1-1-1-1-1|
|-x-12/14--14-14--14--9-9-x-9-x--12/14-14-14--14-14-|-2-2-2-2-2-2-2-2|
|-x-12/14--14-14--14--9-9-x-9-x--12/14-14-14--14-14-|-2-2-2-2-2-2-2-2|
|-x-10/12--12-12--12--7-7-x-7-x--10/12-12-12--12-12-|-0-0-0-0-0-0-0-0|
|-x---------------------------x---------------------|-x-x-x-x-x-x-x-x|
(everything was so damn simple.........................) 

(distrotion guitar 2)                       (clean guitar 1)
|---------------------------------------------------|-x-x-x-x-x-x-x-x|
|---------------------------------------------------|-1-1-1-1-1-1-1-1|
|-x-12/14--14-14--14--9-9-x-9-x--12/14-14-14--14-14-|-2-2-2-2-2-2-2-2|
|-x-12/14--14-14--14--9-9-x-9-x--12/14-14-14--14-14-|-2-2-2-2-2-2-2-2|
|-x-10/12--12-12--12--7-7-x-7-x--10/12-12-12--12-12-|-0-0-0-0-0-0-0-0|
|-x---------------------------x---------------------|-x-x-x-x-x-x-x-x|
tryin' to cover up the damage..........................)

(distrotion guitar 2)                       (clean guitar 1)
|---------------------------------------------------|-x-x-x-x-x-x-x-x|
|---------------------------------------------------|-1-1-1-1-1-1-1-1|
|-x-12/14--14-14--14--9-9-x-9-x--12/14-14-14--14-14-|-2-2-2-2-2-2-2-2|
|-x-12/14--14-14--14--9-9-x-9-x--12/14-14-14--14-14-|-2-2-2-2-2-2-2-2|
|-x-10/12--12-12--12--7-7-x-7-x--10/12-12-12--12-12-|-0-0-0-0-0-0-0-0|
|-x---------------------------x---------------------|-x-x-x-x-x-x-x-x|
(didn't learn to loose it..........................no but oh )
     
Pre-chorus 
|--x-x-x-x-x-x-x--2-2-2-2-2-2-2--x-x-x-x-x-x-x--x-x-x-x--2-2-2-|
|--1-1-1-1-1-1-1--3-3-3-3-3-3-3--1-1-1-1-1-1-1--1-1-1-1--3-3-3-|
|--2-2-2-2-2-2-2--2-2-2-2-2-2-2--2-2-2-2-2-2-2--0-0-0-0--2-2-2-|
|--2-2-2-2-2-2-2--0-0-0-0-0-0-0--2-2-2-2-2-2-2--2-2-2-2--0-0-0-|
|--0-0-0-0-0-0-0--x-x-x-x-x-x-x--0-0-0-0-0-0-0--3-3-3-3--x-x-x-|
|--x-x-x-x-x-x-x--x-x-x-x-x-x-x--x-x-x-x-x-x-x--x-x-x-x--x-x-x-|
 (I’ll keep on rolling down this road but I’ve got a bad, bad feeling)

Chorus
|----------------------------------------------|
|----------------------------------------------|
|---------------5-5-5-5---------------7-7-7-7--|  X2
|--2-2-2-2-2-2--5-5-5-5--5-5-5-5-5-5--7-7-7-7--|
|--2-2-2-2-2-2--3-3-3-3--5-5-5-5-5-5--5-5-5-5--|
|--0-0-0-0-0-0-----------3-3-3-3-3-3-----------|
(it’s gonna take……………..)

|--------------------------------------------------|
|--------------------------------------------------|
|---------------5-5-x-x-x-x---------------7-7-x-/--|  
|--2-2-x-x-x-x--5-5-x-x-x-x--5-5-x-x-x-x--7-7-x-/--|
|--2-2-x-x-x-x--3-3-x-x-x-x--5-5-x-x-x-x--5-5-x-/--|
|--0-0-x-x-x-x------x-x-x-x--3-3-x-x-x-x------x-/--|
(left in the pieces…………….)

|--x-x-x-x-x-x--x--x-x-x-x-x-x-x-x--|
|--1-1-1-1-1-1--1--1-1-1-1-1-1-1-1--|
|--2-2-2-2-2-2--0--0-0-0-0-0-0-0-0--|
|--2-2-2-2-2-2--0--2-2-2-2-2-2-2-2--|
|--0-0-0-0-0-0--2--3-3-3-3-3-3-3-3--|
|--x-x-x-x-x-x--x--x-x-x-x-x-x-x-x--|
(keep on rollin’…..)

Bridge 
|-----------------------------------------------------------------------|
|-----------------------------------------------------------------------|
|--7-7-7-7-7-7-7-7--4-4-4-4-4-4-4-4--5-5-5-5-5-5-5-5-----------7-7-7-7--|
|--7-7-7-7-7-7-7-7--4-4-4-4-4-4-4-4--5-5-5-5-5-5-5-5--5-5-5-5--7-7-7-7--|
|--5-5-5-5-5-5-5-5--2-2-2-2-2-2-2-2--3-3-3-3-3-3-3-3--5-5-5-5--5-5-5-5--|
|-----------------------------------------------------3-3-3-3-----------|
(now I’m numb as hell………………………………)

|----------------------------------------------------------------------|
|----------------------------------------------------------------------|
|--4-4-4-4-4-4-4-4--5-5-5-5-5-5-5-5--6-6-6-6-6-6-6-6--7-7-7-7-7-7-7-7--|
|--4-4-4-4-4-4-4-4--5-5-5-5-5-5-5-5--6-6-6-6-6-6-6-6--5-5-5-5-5-5-5-5--|
|--2-2-2-2-2-2-2-2--3-3-3-3-3-3-3-3--4-4-4-4-4-4-4-4--5-5-5-5-5-5-5-5--|
|----------------------------------------------------------------------|
(I just wanna thank you…………………………………………yeah yea..)

|----------------------------------------------------|
|----------------------------------------------------|
|-------x-x-x-x--5-5--x-x-x-x--6-6--x-x-x-x--5-5--/--|
|--2-2--x-x-x-x--5-5--x-x-x-x--6-6--x-x-x-x--5-5--/--|
|--2-2--x-x-x-x--3-3--x-x-x-x--4-4--x-x-x-x--3-3--/--|
|--0-0--x-x-x-x-------x-x-x-x-------x-x-x-x-------/--|

Quiet chorus (clean)
|--0-0-0-0-0-0--x-x-x-x--3-3-3-3-3-3--2-2-2-2--|
|--0-0-0-0-0-0--1-1-1-1--3-3-3-3-3-3--3-3-3-3--|
|--0-0-0-0-0-0--0-0-0-0--0-0-0-0-0-0--2-2-2-2--|
|--2-2-2-2-2-2--2-2-2-2--0-0-0-0-0-0--0-0-0-0--|
|--2-2-2-2-2-2--3-3-3-3--2-2-2-2-2-2--x-x-x-x--|
|--0-0-0-0-0-0--x-x-x-x--3-3-3-3-3-3--x-x-x-x--|
(it’s gonna take along…………………….)

Chorus
|----------------------------------------------|
|----------------------------------------------|
|---------------5-5-5-5---------------7-7-7-7--|
|--2-2-2-2-2-2--5-5-5-5--5-5-5-5-5-5--7-7-7-7--|
|--2-2-2-2-2-2--3-3-3-3--5-5-5-5-5-5--5-5-5-5--|
|--0-0-0-0-0-0-----------3-3-3-3-3-3-----------|
(a long way to happy yea..............)

|--------------------------------------------------|
|--------------------------------------------------|
|---------------5-5-x-x-x-x---------------7-7-x-/--|  
|--2-2-x-x-x-x--5-5-x-x-x-x--5-5-x-x-x-x--7-7-x-/--|
|--2-2-x-x-x-x--3-3-x-x-x-x--5-5-x-x-x-x--5-5-x-/--|
|--0-0-x-x-x-x------x-x-x-x--3-3-x-x-x-x------x-/--|
(left in the pieces…………….)

|--x-x-x-x-x-x--x--x-x-x-x-x-x-x-x--|
|--1-1-1-1-1-1--1--1-1-1-1-1-1-1-1--|
|--2-2-2-2-2-2--0--0-0-0-0-0-0-0-0--|
|--2-2-2-2-2-2--0--2-2-2-2-2-2-2-2--|
|--0-0-0-0-0-0--2--3-3-3-3-3-3-3-3--|
|--x-x-x-x-x-x--x--x-x-x-x-x-x-x-x--|
(keep on rollin’…..)



Chorus
|----------------------------------------------|
|----------------------------------------------|
|----------------5-5-5-5--------------7-7-7-7--|  X2
|--2-2-2-2-2-2--5-5-5-5--5-5-5-5-5-5--7-7-7-7--|
|--2-2-2-2-2-2--3-3-3-3--5-5-5-5-5-5--5-5-5-5--|
|--0-0-0-0-0-0-----------3-3-3-3-3-3-----------|
(it’s gonna take……………..)

|--------------------------------------------------|
|--------------------------------------------------|
|---------------5-5-x-x-x-x---------------7-7-x-/--|  
|--2-2-x-x-x-x--5-5-x-x-x-x--5-5-x-x-x-x--7-7-x-/--|
|--2-2-x-x-x-x--3-3-x-x-x-x--5-5-x-x-x-x--5-5-x-/--|
|--0-0-x-x-x-x------x-x-x-x--3-3-x-x-x-x------x-/--|
(left in the pieces…………….)

|--x-x-x-x-x-x--x--x-x-x-x-x-x-x-x--|
|--1-1-1-1-1-1--1--1-1-1-1-1-1-1-1--|
|--2-2-2-2-2-2--0--0-0-0-0-0-0-0-0--|
|--2-2-2-2-2-2--0--2-2-2-2-2-2-2-2--|
|--0-0-0-0-0-0--2--3-3-3-3-3-3-3-3--|
|--x-x-x-x-x-x--x--x-x-x-x-x-x-x-x--|
(keep on rollin’…..)
Related for Long Way To Happy tab