Song name
# A B C D E F G H I J K L M N O P Q R S T U V W X Y Z

Pinkerton Thugs - The Ballad Of The Slaugter House tab

---------------------------------------------------------------------------
           Ballad Of The Slaughter House - The Pinkerton Thugs
-------------------------------------------------------------------------------
Tabbed by: Fred 
Email: Timetogo530@hotmail.com

Tuning: Standard

Verse
e|---------------------------------------------------------------------------|
B|---------------------------------------------------------------------------|
G|--------------66666666----------66666666----------66666666-88888888--------|
D|-----66666666-66666666-66666666-66666666-66666666-66666666-88888888--------|
A|-----66666666-44444444-66666666-44444444-66666666-44444444-66666666--------|
E|-----44444444----------44444444----------44444444--------------------------|

Bridge
e|---------------------------------------------------------------------------|
B|---------------------------------------------------------------------------|
G|---------6---8-------------------------------------------------------------|
D|-----6---6---8---6---(x4)--------------------------------------------------|
A|-----6---4---6---6---------------------------------------------------------|
E|-----4-----------4---------------------------------------------------------|

Tap to rate this tab
# A B C D E F G H I J K L M N O P Q R S T U V W X Y Z