Song name
# A B C D E F G H I J K L M N O P Q R S T U V W X Y Z

Pinkly Smooth - Nosferatu Does A Hefty Dance tab

This is my first tab...its played in piano, but this is how you play it on guitar

e|----------------------------------------------------------|
B|----------------------------------------------------------|
G|----------------------------------------------------------|
D|----------------------------------------------------------|
A|--3--2h3-5/6--8-10--6-10----8--10\8--6--5--3--5--3--1--3--|
E|----------------------------------------------------------|

e|-------------------------------------------------------------|
B|-------------------------------------------------------------|
G|-------------------------------------------------------------|
D|-------------------------------------------------------------|
A|--3--2h3-5/6--8-10-11-13-8----6--8--10--11--6----8--5-6-5-3--|
E|-------------------------------------------------------------|


And while you play this all across the intro is just:

e|------------------------------------------------------------|
B|------------------------------------------------------------|
G|------------------------------------------------------------|
D|------------------------------------------------------------|
A|--3-----3-----3-----3-----3-----3-----3-----3-----3-----3---|
E|-----3-----3-----3-----3-----3-----3-----3-----3-----3------|


Or you could just play C and then Gm...

     E A D G B e

C  - x 3 2 0 1 0
Gm - 3 5 5 3 3 3
Tap to rate this tab
 
# A B C D E F G H I J K L M N O P Q R S T U V W X Y Z