Guitaretab - guitar tabs
Song name
# A B C D E F G H I J K L M N O P Q R S T U V W X Y Z

Pino D'angio - Ma Quale Idea tab

-------------------------------------------------------------------------------
			   Ma Quale Idea - Pino D'Angio
-------------------------------------------------------------------------------
Tabbed by: Roman92
Email: romanwebs@hotmail.com

Tuning: Standard


this is the basic rythm on the background of the whole song,
then you can add some more funky muting or whatever you think
that fits :D
[ Tab from: http://www.guitaretab.com/p/pino-dangio/177754.html ]
e|-5/6-6-6--6/88--8-8-8-5/6-6-66-6/88--8-8-xx--8-8-|
B|-5/6-6-6--6/88--9-9-9-5/6-6-66-6/88--9-9-xx--9-9-|
G|-5/6-6-6--6/88-101010-5/6-6-66-6/88-1010-xx-1010-|
D|-------------------------------------------------|
A|-------------------------------------------------|
E|-------------------------------------------------|

this is the piano part that appears several times along the song,
notice that you hace to play it quite fast. Listen to it and try
to get the melody in your head so you can play it.

e|---------8-----------8---------------------------|
B|-9------9-11-8------9--11-9-8-----8h9------------|
G|----8h10------8-8h10----------8h10---------------|
D|-------------------------------------------------|
A|-------------------------------------------------|
E|-------------------------------------------------|


there must be another tab just like this around, well, that was when I didnt have my 
For the suspicious ones, i think that the admins can check if that is true ;)