Song name
# A B C D E F G H I J K L M N O P Q R S T U V W X Y Z

Pino Daniele - Sara tab

Pino Daniele
Sara (Intro)



e|----------2---4--5---4--2----7-7-7-8-7-5-|
B|-----------------------------------------|
G|-----------------------------------------|
D|-----------------------------------------|
A|-----------------------------------------|
E|-----------------------------------------|

e|---12---14--15---14--12---10-10-10-9-7-5-|
B|-----------------------------------------|
G|-----------------------------------------|
D|-----------------------------------------|
A|-----------------------------------------|
E|-----------------------------------------|

e|--2---4--5---4--2----7-7-7-8-7-5-----4--3|
B|-----------------------------------------|
G|-----------------------------------------|
D|-----------------------------------------|
A|-----------------------------------------|
E|-----------------------------------------|

e|---5-4-3---4-3-2---2-1-------------------|
B|-----------------------------------------|
G|-----------------------------------------|
D|-----------------------------------------|
A|-----------------------------------------|
E|-----------------------------------------|
Tap to rate this tab
 
# A B C D E F G H I J K L M N O P Q R S T U V W X Y Z