Guitaretab - guitar tabs
Song name
# A B C D E F G H I J K L M N O P Q R S T U V W X Y Z

Pino Daniele - Napule tab

-----------------------------------------------------------------
NAPULE  - Pino Daniele
-----------------------------------------------------------------


Tuning:

         Napule  milla culura... 
e|--------0-----0-----0-----------0-----0-----0------------------|
B|--------0-----0-----0-----------1-----1-----1------------------|
G|-----0-----0-----0-----0-----2-----2-----2-----2---------------|
D|--------------------------3------------------------------------|
A|--3------------------------------------------------------------|
E|---------------------------------------------------------------|
          C7                     F7                     (2x)

[ Tab from: http://www.guitaretab.com/p/pino-daniele/51941.html ]
         Napule  a voce de criature, che saglie chiano...
e|--------3--------3--------0-----------0------------------------|
B|--------3--------3--------0-----------3------------------------|
G|-----4--------4--------1-----1-----1-----1---------------------|
D|---------------------------------------------------------------|
A|--------------------------------2------------------------------|
E|--3--------3--------0------------------------------------------|
     [B]G                E            E7

     ...chiano, e tu sai ca nun si sulo. 
e|--------0---------------------------0-----0-----0--------------|
B|--------1---------------------------1-----1-----1--------------|
G|-----2-----2-----2/4-------4-----0-----0-----0-----------------|
D|---------------------------------------------------------------|
A|--0---------------------------3--------------------------------|
E|--------------1---------3--------------------------------------|
      Am          [B]F  /  [B]G      C... da capo al fine


| / slide up
| \ slide down
| h hammer-on
| p pull-off
| ~ vibrato
| + harmonic
| x Mute note
Related for Napule tab