Song name
# A B C D E F G H I J K L M N O P Q R S T U V W X Y Z

Pint Shot Riot - Not Thinking Straight tab

INTRO:~
e|----------------------------------------------------------|
B|-------------------------------------55-------------------|
G|-----44--44--44--44----------------77--77-----------------|
D|-----------------------77-55-44---------------------------|
A|---22--22-----------------------55------------------------|
E|-----------33--33----55-----------------------------------|



CHORDS:~
e|---7------------3------------5------------5---------5-----|
B|---7------------3------------5------------5---------5-----|
G|---7------------4------------6------------7---------6-----|
D|---9------------5------------7------------7---------7-----|
A|---9------------5------------7------------5---------7-----|
E|---7------------3------------5----------------------5-----|
Tap to rate this tab
# A B C D E F G H I J K L M N O P Q R S T U V W X Y Z