Song name
# A B C D E F G H I J K L M N O P Q R S T U V W X Y Z

Pinwheels - Teenage History tab

intro    e------------------------------------------------------|
         b------------------------------------------------------|
         g------------------------------------------------------|
4 time   d-----4-4--7-----------5-------4----5--------5-4-0-----|
         a-5-5--------------7-7-----2-2---2------0--0-----------|
         e-------------5-5--------------------------------------|


verse   e--------------------------------------------------|
        b--------------------------------------------------|
        g----7-----------12--11----------------------------|
        d----7---7---9---12--11----------------------------|
        a----5---7---9---10--9-----------------------------|
        e--------5---7-------------------------------------|


chours  e-------------------------------------------------|
        b-------------------------------------------------|
        g--11---12----7-----------------------------------|
        d--11---12----7---7-------------------------------|
        a--9----10----5---7-------------------------------|
        e-----------------5-------------------------------|
Tap to rate this tab
# A B C D E F G H I J K L M N O P Q R S T U V W X Y Z