Guitaretab - guitar tabs
Song name
# A B C D E F G H I J K L M N O P Q R S T U V W X Y Z

Piotr Ilyich Tchaikovsky - The Seasons - Op 37 No 6 tab

     Q    Q    H           Q    Q    E  E  E  E     E  E  E  E  E  E  E  E   
E||---------------------|------------------------|--------------0--5--4--5--|
B||------------1--------|------------1-----------|-----0--1--3--1-----------|
G||------------2--------|------------2--------1--|--2-----------2-----------|
D||-------2-------------|-------2-------2--4-----|--------2-----------------|
A||--0------------------|--0---------------------|--0-----------------2-----|
E||---------------------|------------------------|--------------------------|

  Q    Q    E  E  E  E     E  E  E  E  E  E  E  E     E  E  E  E  E  E  E  E   
--0------------0--------|-----1-----1--0-----------|--------------------------|
------------------0--3--|--1-----4--------1-----0--|--------------------------|
------------2-----2-----|--2-----------------1-----|--2-----------------------|
-------2----------0-----|--2-----------------------|-----3--1--3--2--2--4--6--|
--3---------------------|--------------------------|--0-----------------5-----|
------------------------|--------------------0-----|--------------------------|

  E  E  E  E  E  E  E  E     Q    Q    E  E  E  E     Q    Q    E  E  E  E   
--------------0--5--3--5--|---------------3--1--3--|---------------1--0--1--|
-----0--1--3--1-----3-----|--5---------------1-----|--3---------------0-----|
--2-----------2-----------|--5----0----5-----------|--4---------2-----------|
--------2-----------------|------------------------|-------3----------------|
--3-----------------2-----|--3---------------0-----|--2---------------------|
--------------------------|------------------------|------------------4-----|

  Q    Q    E  E  E  E     E  E  E  E  Q    E  E     E  E  E  E  E  E  E  E   
---------------0-----0--|-------------------------|--------------------------|
--1---------------3-----|--3--1--0-------------0--|--------------------0--1--|
--2---------2-----4-----|--2--------2--5----1-----|--2--------------2--------|
-------2----------3-----|--2-----2-----4----0-----|-----2--------------------|
--0---------------5-----|--------3-----6----------|--0-----3-----0-----------|
------------------------|-------------------------|-----------0--------------|

  E  E  E  E  E  E  E   E     Q    Q    E  E  E  E     Q    Q    E  E  E  E   
-----0--1--3--5--7--8--10--|---------------3--5--8--|---------------1--3--7--|
--3-----------0------------|--8---------------------|--6---------0-----------|
--------0------------------|-------0----5-----------|-------0----------------|
--3------------------------|------------------------|--0---------------------|
---------------------------|--7---------------------|------------------------|
---------------------------|------------------------|------------------------|

  Q    Q    E  E  E  E     E  E  E  E  E  E  E   E     Q    Q    E  E  E  E   
--0---------------------|-----0--1--3--5--7--8--10--|--0------------0--2--4--|
------------1-----0--1--|--3-----------0------------|------------0-----------|
-------0-------2--------|--------0------------------|-------1----------------|
------------------------|--3------------------------|------------------------|
--3---------------------|---------------------------|------------------------|
------------------------|---------------------------|--0---------------------|

  Q    Q    E  E  E  E     Q    Q    E  E  E  E     E  S T T E  E  E  E  E  E   
--5------------0--------|--4---------------------|--5--0-1-0----0--1--0--------|
------------1-----3--1--|------------0--3--1--0--|-----------4-----------1-----|
------------------------|------------------------|-----------------2--------2--|
-------2----------------|-------2----------------|-----------2-----------------|
------------------------|------------------------|-----------------------------|
--0---------------------|--0---------------------|--0--------------------------|

  E  E  E  E  E  E  E  E     E  E  E  E  E  E  E  E     Q    Q    E  E  E  E   
--0-----0-----------------|--------------0--5--4--5--|--0------------0--------|
--0-----------------------|-----0--1--3--1-----------|------------------0--3--|
-----2--1--------------1--|--2-----------2-----------|------------2-----2-----|
-----------3--2--0--4-----|--------2-----------------|-------2----------0-----|
-----------------7--3--2--|--0-----------------2-----|--3---------------------|
--0-----------------------|--------------------------|------------------------|

  E  E  E  E  E  E  E  E     E  E  E  E  E  E  E  E   
-----1-----1--0-----------|--------------------------|
--1-----4--------1-----0--|--------------------------|
--2-----------------1-----|--2-----------------------|
--2-----------------------|-----3--1--3--2--2--4--6--|
--------------------------|--0-----------------5-----|
--------------------0-----|--------------------------|

  E  E  E  E  E  E  E  E     Q    Q    E  E  E  E     Q    Q    E  E  E  E   
--------------0--5--3--5--|---------------3--1--3--|---------------1--0--1--|
-----0--1--3--1-----3-----|--5---------------1-----|--3---------------0-----|
--2-----------2-----------|--5----0----5-----------|--4---------2-----------|
--------2-----------------|------------------------|-------3----------------|
--3-----------------2-----|--3---------------0-----|--2---------------------|
--------------------------|------------------------|------------------4-----|

  Q    Q    E  E  E  E     E  E  E  E  Q    E  E     E  E  E  E  E  E  E  E   
---------------0-----0--|-------------------------|--------0-----------0-----|
--1---------------3-----|--3--1--0-------------0--|--------2-----2-----2-----|
--2---------2-----4-----|--2--------2--5----1-----|--2-----------2-----------|
-------2----------3-----|--2-----2-----4----0-----|-----------2-----------2--|
--0---------------5-----|--------3-----6----------|-----0-----------0--------|
------------------------|-------------------------|--------------------------|

  E  E  E  E  E  E  E  E     E  E  E  E  E  E  E  E   
--2-----------------2-----|--0-----5-----4-----2-----|
--3-----0--2--3-----3-----|--2-----7-----5-----3-----|
--------1--2--4-----------|--------------------------|
-----------2-----------2--|-----------------------2--|
-----0-----------0--------|-----0-----7--------------|
--------------------------|-----------------5--------|

  E  E  E  E  E  E  E  E     E  E  E  E  E  E  E  E   
--0-----------------------|--0-----0-----------0-----|
--2-----0--2--3-----4-----|--2-----2-----2-----2-----|
--------1--2--4-----5-----|--------------2--------2--|
-----------2-----------2--|-----------4-----2--------|
-----0-----------0--------|-----0--------------------|
--------------------------|--------------------------|

  E  E  E  E  E  E  E  E     E  E  E  E  E  E  E  E   
--2-----------------2-----|--0-----5-----4-----2-----|
--3-----0--2--3-----3-----|--2-----7-----5-----3-----|
--------1--2--4--------1--|-----2--------------------|
-----2-----3-----2--------|--------------------------|
--------------------------|-----------3-----4-----1--|
--------------------------|--------------------------|

  E  E  E  E  E  E  E  E     S S S S Q    E  E     S S S S Q    E  E   
--0-----------------2-----|--0---0---5-------2--|--4-------2----------|
--2-----0--2--3-----3-----|--2---2--------------|--5---2-----------3--|
--------1--2--4-----------|----------6----2-----|--6-------2----------|
--------------------------|----------4----------|------2---0----4-----|
-----2--------------------|--0---0--------------|---------------------|
-----------1-----0-----4--|---------------------|---------------------|

  E  E  Q    E  E     Q    E  S S E  E     S S S S E  E  E  E   
--0-----0----------|----------3---2-----|--0-------------------|
--2-------------4--|--3----2------3--0--|--2----------2--0--2--|
--2--2--2----------|--1-----------4-----|--2-------------1-----|
-------------------|--3----2------0-----|--2-------2-----0-----|
--------4----3-----|--2----1------------|------0---------------|
-------------------|--------------------|----------------0-----|

  S S S S Q    E  E     S S S S Q    E  E     E  E  Q    E  E   
------0---5-------2--|--4-------2----------|--0-----0----------|
------2--------------|--5---2-----------3--|--2-------------4--|
--2-------6----2-----|--6-------2----------|--2--2--2----------|
----------4----------|------2---0----4-----|-------------------|
--0---0--------------|---------------------|--------4----3-----|
---------------------|---------------------|-------------------|

  Q    E  E  Q       E  E  Q    E  S T T  
--2-------1--4----|-----3--6-------5---2-|
--1----0-----3----|--2-----5----4------4-|
--2----1-----4----|--3-----6----5----2---|
--1----0-----3----|--2-----5----4--------|
------------------|----------------------|
------------------|----------------------|
[ Tab from: http://www.guitaretab.com/p/piotr-ilyich-tchaikovsky/185973.html ]
  S T T S T T S T T S T T S T T  S T  T     E.   T  T  Q    Q     
--9-----------2-----5---2-8---5-11----8-|--14------11-17---------|
--------4---1-----4-----4-----7------10-|----------13------------|
------2-----2-----5---2-----5------8----|-------11---------------|
------4---1-----4-----------------------|------------------------|
----3-----------------------------------|------------------------|
----------------------------------------|------------------------|

  E   E   E  E  Q    Q       Q    Q    E  E  E  E     E  E  E  E  E  E  E  E   
--------------------------|-------0----------------|--------------0--5--4--5--|
--------------------------|-------3----------------|-----0--1--3--1-----------|
--------------------------|-------4-------------1--|--2-----------2-----------|
--------------------------|-------2-------2--4-----|--------2-----------------|
--------------------------|------------------------|--0-----------------2--0--|
-----14--11--8--7----5----|--4---------------------|--------------------------|

  E  E  E  E  E  E  E  E     E  E  E  E  E  E  E  E   
-----------------0--------|-----1-----1--0-----------|
--5-----------------0--3--|--1-----4--------1-----0--|
--5-----------------2-----|--2-----------------1-----|
-----------0--2-----0-----|--2-----------------------|
-----0--3-----------------|--------------------------|
--4-----------------------|--------------------0-----|

  E  E  E  E  E  E  E  E     E  E  E  E  E  E  E  E   
--------------------------|--------------0--5--3--5--|
--------------------------|-----0--1--3--1-----------|
--2-----------------------|--2-----------2-----------|
-----3--1--3--2--2--4--6--|--------2-----------------|
--0-----------------5-----|--3-----------------2--0--|
--------------------------|--------------------------|

  E  E  E  E  E  E  E  E     E  E  E  E  E  E  E  E   
--0--------------3--1--3--|-----------------1--0--1--|
--------------------1-----|--3-----------------0-----|
--5-----------0-----------|--------------------------|
-----------2--------2-----|--3--------0--3-----0-----|
-----0--3-----------0-----|--2--0--2-----------------|
--3-----------------------|--------------------4-----|

  E  E  E  E  E  E  E  E     E  E  E  E  Q     E  E   
-----------------0-----0--|--------------------------|
--1-----------------3-----|--3--1--0--------------0--|
--------------------4-----|--2--------2--5-----------|
--2-----------2-----3-----|--2-----2-----4-----0-----|
--0-----0--3--------5-----|--------3-----6----11-----|
-----0--------------------|-------------------13-----|

  E  E  E  E  E  E  E  E     E  E  E  E  E  E  E   E   
--------------------------|-----0--1--3--5--7--8--10--|
--------------------0--1--|--3-----------0------------|
--2--------------2--------|--------0------------------|
-----2--------------------|--3------------------------|
--0-----3-----0-----------|---------------------------|
-----------0--------------|---------------------------|

  E  E  E  E  E  E  E  E     E  E  E  E  E  E  E  E   
-----------------3--5--8--|-----------------1--3--7--|
--8-----------------------|--6-----------------0-----|
--------------0-----5-----|--------------0-----------|
-----------2--------------|--0--------3--------------|
--7-----3-----------------|--------2-----------------|
-----3--------------------|-----3--------------------|

  E  E  E  E  E  E  E  E     E  E  E  E  E  E  E   E   
--0-----------------------|-----0--1--3--5--7--8--10--|
--------------------0--1--|--3-----------0------------|
--------------0--2--------|--------0------------------|
-----------2--------------|--3------------------------|
--3-----3-----------3-----|---------------------------|
-----3--------------------|---------------------------|

  E  E  E  E  E  E  E  E     E  E  E  E  E  E  E  E   
--0--------------0--2--4--|--5--------------0--------|
--------------------------|--------------------3--1--|
--------------1-----------|--------------2-----------|
-----------2--------------|-----------2--------2-----|
--------2-----------2-----|-----0--3-----------0-----|
--0--4--------------------|--0-----------------------|

  E  E  E  E  E  E  E  E     E  S T T E  E  E  E  E  E   
--4-----------------------|--5--0-1-0----0--1--0--------|
-----------------3--1--0--|-----------4-----------1-----|
--------------1-----------|-----------------2--------2--|
-----------2--------------|--------------2--------------|
--------2-----------2-----|-----0-----3-----------0-----|
--0--4--------------------|--0--------------------------|

  E  E  E  E  E  E  E  E     E  E  E  E  E  E  E  E   
--0-----0-----------------|--------------0--5--4--5--|
--------------------------|-----0--1--3--1-----------|
-----2--1--------------1--|--2-----------2-----------|
-----------3--2--0--4-----|--------2-----------------|
-----------------7--3--2--|--0-----------------2--0--|
--0-----------------------|--------------------------|

  E  E  E  E  E  E  E  E     E  E  E  E  E  E  E  E   
-----------------0--------|-----1-----1--0-----------|
--5-----------------0--3--|--1-----4--------1-----0--|
--5-----------------2-----|--2-----------------1-----|
-----------0--2-----0-----|--2-----------------------|
-----0--3-----------------|--------------------------|
--4-----------------------|--------------------0-----|

  E  E  E  E  E  E  E  E     E  E  E  E  E  E  E  E   
--------------------------|--------------0--5--3--5--|
--------------------------|-----0--1--3--1-----------|
--2-----------------------|--2-----------2-----------|
-----3--1--3--2--2--4--6--|--------2-----------------|
--0-----------------5-----|--3-----------------2--0--|
--------------------------|--------------------------|

  E  E  E  E  E  E  E  E     E  E  E  E  E  E  E  E   
--0--------------3--1--3--|-----------------1--0--1--|
--------------------1-----|--3-----------------0-----|
--5-----------0-----------|--------------------------|
-----------2--------2-----|--3--------0--3-----0-----|
-----0--3-----------0-----|--2--0--2-----------------|
--3-----------------------|--------------------4-----|

  E  E  E  E  E  E  E  E     E  E  E  E  Q     E  E   
-----------------0-----0--|--------------------------|
--1-----------------3-----|--3--1--0--------------0--|
--------------------4-----|--2--------2--5-----------|
--2-----------2-----3-----|--2-----2-----4-----0-----|
--0-----0--3--------5-----|--------3-----6----11-----|
-----0--------------------|-------------------13-----|

  E  E  E  E  E  E  E  E     E  E  E  E  E  E  E  E   
--------------------5-----|--0-----------0-----------|
-----------------1--5--0--|--9-----6-----0-----0-----|
--2-----------------------|--7-----7-----7-----7-----|
-----2--------------------|-----7--9--6-----3--6-----|
--0-----3-----0-----------|-----------------------7--|
-----------0--------------|--------------------------|

  E  E  E  E  E  E  E  E     E  E  E  E  E  E  E  E   
--------------------0-----|--------------------------|
--------0--------1--3-----|-----------0--------1-----|
--5-----1-----2-----4--2--|--1--2--3-----------------|
--4--0--------2-----------|--------------------------|
-----------3--------0-----|--------0--------3--2--0--|
--------------------------|--------------1-----------|

  E  E  E  E  E  E  E  E     E  E  E  E  E  E  E  E   
--------------------------|--------------------------|
--------------------------|--------0-----1-----3-----|
--------5-----2-----1-----|--2-----1-----2-----4-----|
--------------------0-----|--2-----------------------|
-----------0-----------0--|-----------0-----------0--|
--4--2--4--------0--------|-----0-----------0--------|

  E  E  E  E  E  E  E  E     E  E  E  E  E  E  E  E   
--0-----4-----5-----------|--0-----4-----5-----7-----|
--1-----0-----------3-----|--1-----0-----------9-----|
--------------5-----4--2--|-----------2--5-----------|
-----------------2--------|-----2-----------2-----7--|
-----------0--------------|--------------------------|
-----0--------------------|--------------------------|

   E  E   E  E   E   E   E  E      E   E   E  E   E  E   E   E   
---8-----10-----12------10-----|--12------10-----12--0--16------|
--10------9-----13-------9-----|--13-------9-----13-----15------|
-------------------------------|--------------------------------|
-------------7--------------7--|--------------7-----------------|
------7------------------------|--------------------------------|
--------------------12---------|------12--------------------17--|

   E   E   E   E   E   E   E   E      E   E   E   E   E   E   E   E   
--17------16------17------17------|--17------17------17------17------|
----------15----------------------|----------------------------------|
--17--------------17--14--17--14--|--17--14--17--14--17--14--17--14--|
------14--------------------------|----------------------------------|
----------------------------------|----------------------------------|
--------------17------------------|----------------------------------|

   E   E   E   E   E  Q    E    
--17------17------17----------||
------------------------------||
--17--14--17--14--17----------||
------------------------------||
------------------------------||
------------------------------||


Duration Legend
---------------
H - half
Q - quarter
E - 8th
S - 16th
T - 32nd

Related for The Seasons - Op 37 No 6 tab