Song name
# A B C D E F G H I J K L M N O P Q R S T U V W X Y Z

Piotr Ilyich Tchaikovsky - The Dolls Burial tab

The Doll's Burial, Op 39, No 7
by Peter Ilyich Tchaikovsky


Tuning - E A D G B E 	Time Signature - 2/4


 |       |        |       |        |       |         
|----------------|----------------|----------------|
|0-------0-----0-|0-------0-----0-|0-------2-------|
|----------------|0---------------|--------3-------|
|0---------------|2---------------|0-------4-------|
|2---------------|----------------|2---------------|
|----------------|----------------|--------2-------|

 |       |        |       |        |       |       
|----------------|----------------|----------------|
|3---------------|2-------2-----2-|2-------2-----2-|
|4---------------|4---------------|3---------------|
|4---------------|5---------------|4---------------|
|2---------------|----------------|----------------|
|----------------|----------------|----------------|

 |       |        |       |        |       |       
|0---------------|----------------|----------------|
|2-------3-------|2---------------|0-------0-----0-|
|0-------4-------|3---------------|----------------|
|2-------3-------|4---------------|0---------------|
|----------------|----------------|2---------------|
|----------------|----------------|----------------|

 |       |        |       |        |       |         
|----------------|----------------|----------------|
|0-------0-----0-|0-------2-------|3---------------|
|0---------------|--------3-------|4---------------|
|2---------------|0-------4-------|4---------------|
|----------------|2---------------|2---------------|
|----------------|--------2-------|----------------|

 |       |        |       |        |       |       
|----------------|----------------|----------------|
|2-------2-----2-|2-------3-------|0---------------|
|0---------------|3---------------|----------------|
|2---------------|4---------------|--------4-----4-|
|----------------|----------------|--------5-----5-|
|----------------|----------------|--------7-----7-|

             FINE|
 |       |        |       |        |       |       
|----------------|----------------|----------------|
|----------------|----------------|0-------------0-|
|----------------|3-------------3-|--------1-------|
|4---------------|--------4-------|0---------------|
|5---------------|4---------------|2---------------|
|7---------------|2---------------|----------------|

 |       |        |       |        |       |        
|----------------|----------------|----------------|
|----------------|----------------|2-------------2-|
|3-------1-------|3---------------|3-------3-----3-|
|--------0-------|----------------|4-------4-------|
|4-------2-------|4---------------|----------------|
|2---------------|2---------------|2---------------|

 |       |        |       |        |       |        
|----------------|0---------------|----------------|
|3-------0-----3-|2-------3-------|2---------------|
|4-------------4-|0-------4-------|3---------------|
|4-------0-----4-|2-------2-------|4---------------|
|2-------2-----2-|----------------|----------------|
|----------------|----------------|----------------|

 |       |        |       |        |       |       
|2-------2-----2-|2-------2-----2-|2-------2-----2-|
|0---------------|0---------------|3---------------|
|----------------|----------------|----------------|
|0---------------|----------------|4---------------|
|----------------|4---------------|2---------------|
|----------------|----------------|----------------|

 |       |        |       |        |       |       
|2-------2-----2-|7-------7-------|----------------|
|2---------------|7-------6-----6-|6-------6-----6-|
|----------------|7-------7-----4-|4-------6-----7-|
|4---------------|----------------|----------------|
|0---------------|----------------|----------------|
|----------------|4-------4-----3-|3-------3-----3-|

                         D C al FINE
 |       |        |       |        
|--------1-------|2---0-----------||
|6-------2---0---|--------3---2---||
|7---------------|3---------------||
|----------------|----------------||
|--------4-------|4---------------||
|3---------------|2---------------||
Tap to rate this tab
# A B C D E F G H I J K L M N O P Q R S T U V W X Y Z