Piotr Ilyich Tchaikovsky - The Seasons Op 37a tab

This is my first tab, and I am not sure if this is accurate. 
Just used a software to help me manually convert a piano sheet 
into a guitar tab. The reason is that I don't own a Guitar pro. 
I'm also on a vacation and I am away from my guitar.

To play the piece fully, you need a pair of guitar. This tab 
covers only less than half of the piece, from the start 
until the part Esther(orphan) played. I didn't bother to finish
this tab or the Guitar 2 because I don't know if 
this is really accurate.

Anyway, please try it out. And let me know if this is accurate. ^_^
After vacation I'm planning to create 
a full second version. Please comment if you want something to
be added ok?

By: Ashura




||---------------|---------------|---------------|---------------|---------------|---------------|
||---3-2-3---2---|---0---0-------|---------------|---------------|---------------|---------------|
||---------------|-----3-----3---|----2-1-2---1--|----0----------|---------------|---------------|
||---------------|---------------|---------------|--------4---2--|-----0-3-4-5---|---------------|
||---------2-----|-2-------2-----|--2-------2----|--2---2---2----|-----2---------|--------0------|
||---------------|---------------|---------------|---------------|---------------|------3---3-2--|




 |---------------|---------------|---------------|---------------|---------------|---------------|
 |---------------|---------------|----3-2-3---2--|---0---0-------|---------------|---------------|
 |---------------|---------------|---------------|-----3-----3---|----2-1-2---1--|----0----------|
 |-------3-4-5---|---------------|---------------|---------------|---------------|--------4---2--|
 |-----2---------|--------0------|-2--------2----|-2-------2-----|--2-------2----|--2---2---2----|
 |---------------|------3---3-2--|---------------|---------------|---------------|---------------|


 |---------------|---------------|---------------|----------4----|---10-9-10---9-|----7-6-7---6--|
 |---------------|---------------|---------------|--------2------|-7-------------|--7-------7----|
 |---------------|---------------|---------------|----0-1--------|-----------9---|---------------|
 |-----0-3-4-5---|---------------|-------3-4-5---|---------------|---------------|---------------|
 |-----2---------|--------0------|-----2---------|---------------|---------------|---------------|
 |---------------|------3---3-2--|---------------|---------------|---------------|---------------|

 |-------5-------|---------------|---15-14-15--14|---12-11-12--11|-------10-5----|---------------|
 |----12-10-3----|-----7-5-5-----|---------------|-----------12--|-12--------12--|-----3---------|
 |---------2-----|---2-----------|---------------|---------------|---------------|-----4---------|
 |---------------|-----4---------|---------------|---------------|---------------|-------3-2-----|
 |---------------|-------3-2-----|---------------|---------------|---------------|---------------|
 |---------------|---------------|-12------------|---------------|---------------|---------------|

 |---------------|---------------|---------------|---------------|---------------|---------------|
 |---------------|---------------|---------------|---------------|---------------|----5-4---5-4--|
 |---------------|---------------|---2-1---2-1---|----2-1---2-1--|---5-4---5-4---|--------0------|
 |----3-2---3-2--|----3-2---3-2--|---------------|---------------|-------2-------|--2------------|
 |--0-----0------|--0-----0------|-0-----3-------|--3-----3------|-3-------------|---------------|
 |---------------|---------------|---------------|---------------|---------------|---------------|



 |----3-2---3-2--|----7-6---7-6--|----6---6---6--|----6---6---6--|---------------|---------------|
 |--------0------|--0-----3------|--3---3---3----|--3---2---2----|--2-2---2---2--|---------------|
 |--0------------|---------------|---------------|---------------|---------------|---------------|
 |---------------|---------------|---------------|---------------|------4---4----|--4------------|
 |---------------|---------------|---------------|---------------|---------------|----5---5---5--|
 |---------------|---------------|---------------|---------------|---------------|------2---2----|

 |---------------|---------------|---------------|---------------|---------------|---------------|
 |----3-2-3---2--|---------------|---------------|---------------|---------------|---------------|
 |---------------|----4-3-4---3--|----2-1-2---1--|---------------|---------------|---------------|
 |---------------|---------------|---------------|----5---4---2--|-----0-3-4-5---|---------------|
 |----------2----|--2-------2----|--2-------2----|--2---2---2----|-----2---------|------0--------|
 |--2------------|---------------|---------------|---------------|---------------|----3---3-2----|

 |---------------|---------------|---------------|---------------|-------2-2-2---|---2-2-2-2-2---|
 |---------------|---------------|---------------|---------------|---------------|---------------|
 |---------------|---------------|---------------|---------------|-------3-1-3---|---1-3-1-3-4---|
 |-------3-4-5---|---------------|-------2-------|-------6-4-3---|-----4---------|---------------|
 |-----2---------|------0--------|-----2---5-4---|-----5---------|---------------|---------------|
 |---------------|----3---3-2----|---------------|---------------|---------------|---------------|



 |---0-----------|---------------|------------0--|-----0---------|---------------|
 |---0-----------|---------------|----------2----|-------2-0-----|---------------|
 |-------0-4-6---|-----6-4-0-----|--------4------|-----------0---|---------------|
 |---2-2---------|-----------2---|------2--------|---------------|-------------4-|
 |---------------|---------------|----4----------|---------------|-----4---2-5---|
 |---------------|---------------|--0------------|---------------|---3---2-------|

 |---7------------10-14-19----14-|----15-12-14-10-12-9--10-6-7-2-3---2---0-----0-----------------|
 |---8---------------------15----|----17-14-15-12-14-11-12-7-8-----5---3---2-3---2-3-------------|
 |---9------11----7--11-16-------|---------------------------------------------------3-4---------|
 |---9-9-12----11----------------|-------------------------------------------------------4-5-----|
 |-------------------------------|---------------------------------------------------------------|
 |-------------------------------|---------------------------------------------------------------|


 |------6-7------|---9--9--9-----|-----2-2-2-----|---9--9--9----|
 |------5-7------|---12-12-12----|-----0-2-3-----|---12-12-12---|
 |------6-7------|---6--7--9-----|-----1-3-4-----|---6--7--9----|
 |---------------|---------------|---------------|--------------|
 |---------------|---------------|---------------|--------------|
 |---------------|---------------|---------------|--------------|


 |-------------2-1-2-2-2-2-2--2--2--14-13-14-14-14-14-14-14-14-14-|----7----------||
 |-------3-2-3-3-3-3-3--3--3--15-14-15-15-15-15-15-15-15-15-15-15-|----7---0------||
 |-4-3-4-4-4-4-4-4-4-16-15-16-16-16-16-16-16-16-16-16-16-16-16-16-|----4-4--------||
 |-4-4-4-4-4-4----------------------------------------------------|------4-0------||
 |-5-5-5----------------------------------------------------------|------2-2------||
 |----------------------------------------------------------------|--------2------||
Tap to rate this tab
 
# A B C D E F G H I J K L M N O P Q R S T U V W X Y Z