Song name
# A B C D E F G H I J K L M N O P Q R S T U V W X Y Z

Piotr Ilyich Tchaikovsky - 1812 Overture tab

Help us improve GuitareTab! Take a short survey!
1812 Overture 
-------------

E|-----------------------------------------------------------|
B|----------8---------8------------------8---------8---------|
G|-----8-10---10-8-10----8---8------8-10---10-8-10----8---8--|
D|---8----------------------------8--------------------------|
A|-----------------------------------------------------------|
E|-----------------------------------------------------------|


E|----------------------------------------------------------|
B|----------------------------------------------------------|
G|-----10-12-10----------10---------10-------8-10-8---------|
D|--10----------10----10----10----10-------8--------8----8--|
A|-----------------11----------11---------------------10----|
E|----------------------------------------------------------|


E|--------------------|
B|--------------------|
G|--8--------8--------|
D|----8----8----------|
A|------10------------|
E|--------------------|


Repeat the last three lines once - as you get to the last few notes,
start playing in the wrong key - and add a few odd notes at the end 
too
Related for 1812 Overture tab