Guitaretab - guitar tabs
Song name
# A B C D E F G H I J K L M N O P Q R S T U V W X Y Z

Piotr Tchaikovsky - Dance Of The Sugarplum Fairy tab

#

Date: Sun, 23 Nov 1997 10:30:12 -0800
From: Michael and Victor Zefas 
Subject: Classical TAB:  Tchaikovsky's Dance of the Sugar Plum Fairy (best

This TAB transcription was created using TAB MASTER version 1.0
If you enjoy using this program, please consider telling the author
about it: Ofir Zwebner, e-mail: ofirz1@ccsg.tau.ac.il
                    snail-mail: Ehoud 10, Tel Aviv, 69936, Israel

--------------------------------------------------------------------
This is a short guitar-transcribed version of Dance of the Sugar Plum
Fairy by Peter L. Tchaikovsky.  I'm sure everybody knows it from "Home Alone".
It's in the key of E minor and is in 2/4 time.  
Notation:   The  "e" means the note(s) below it are eighth notes while the
"s" means the note(s) below it are sixteenth notes.  It's a little hard to
accurately transcribe it because of the mix of 8th and 16th notes.  Another
thing to note is that and 8th note is followed by two spaces while a 16th note
is followed by only 1 space.  THis might help. It's an eerie awesome song...
enjoy! 


  e  e  e  e  e  e  e  e       e  s s e  e    e  e  s s e 
                       (repeat once)
e:---0-----2-----3----------||----3-0-3--2-|-----0---------|
B:---------------------4----||-------------|--4-----3-3-3--|
G:---0-----2-----3-----2---*||*------------|---------------|
D:-------------------------*||*------------|---------------|
A:--------------------------||----2------0-|------------2--|
E:0-----0-----0-----0-------||-0------0----|--2--3--0------|



   s s e  s s e    s s s s  e  s s   e  s s  e  e   e  e  s s e

e:---------------|---0---0---------|--------------|-------3-3-3--|
B:-2-2-2--1-1-1--|-0---1----0------|--------------|-1--0---------|
G:---------------|-----------------|----0----0----|--------------|
D:---------------|-----------------|------2-----4-|----2------2--|
A:-----1------0--|-----0-------3-2-|-1-------0----|-------1------|
E:-0------0------|-0--------0------|--------------|-3------------|


                   CII--------|
   s s e  s s e    s s s s e         e  s s e  e    e  e  s s e

e:-2-2-2--0-0-0--|---2---2---------|----3-0-3--2--|----0---------|
B:---------------|-4---5---4-------|----0---------|-4-----3-3-3--|
G:---------------|-----------------|-----------2--|----0------4--|
D:-----4------4--|-----------------|--------------|-4-----2------|
A:-2------4------|-2---3---2-------|--------------|--------------|
E:---------------|------------3-2--|-0------0-----|--------------|



   s s e  s s e   s  s s s e  s s   e  s s e  e    e  s s e  e

e:---------------|---0---0--------|----0---0-----|-------------|
B:-2-2-2--1-1-1--|-0---1---0------|------2----4--|----3-0-3--2-|
G:-----3------2--|-----2----------|--------------|-------------|
D:-2------2------|-2-------2--2-0-|--------4-----|-------------|
A:---------------|----------------|-4------------|-2-----------|
E:---------------|----------------|--------------|--------0----|


                                              
   e  s s e  e   e  s s e

e:-------------|---------------------||  My email address is: 
B:----1---1--0-|------0--------------||  mellowg@cpros.com
G:------2------|--------------------*||
D:--------0----|----1---2-(8th-Rest)*||	 I'd love to hear from you if you have
A:-0-----------|---------------------||  any suggestion or corrections. Thanks!
E:-------------|-3--2---0------------||

Reminder:  I did make this with Tab Master becasue it's an awesome program.
I recommend you to get it.  I'm going to try to send him some money soon.
[ Tab from: http://www.guitaretab.com/p/piotr-tchaikovsky/18901.html ]