Song name
# A B C D E F G H I J K L M N O P Q R S T U V W X Y Z

Pipedown - The Overworld tab

Artist-Pipedown
Song- The Overworld


This Is Just The Intro Submitted By EKW

--------------------------------------------|
--------------------------------------------|
-9----9----9----9----9----9----9----9-------|
---10---10---10---10---10---10---10---10----|
--------------------------------------------|
--------------------------------------------|

--9---9----10--9--7--9--5-5-5-5-5-5--5-5-5-4--5-5-5-4--|
---10---10---------------------------------------------|
-------------------------------------------------------|
-------------------------------------------------------|
-------------------------------------------------------|
-------------------------------------------------------|

You Also Play This During The Verse ^
Tap to rate this tab
# A B C D E F G H I J K L M N O P Q R S T U V W X Y Z