Song name
# A B C D E F G H I J K L M N O P Q R S T U V W X Y Z

Pirates From Hell - The House Of Devils tab

t. See http://www.olga.net/faq/ for more information.                     #
#-----------------------------------------------------------------------------#

Date: Mon, 10 Apr 2000 22:58:11 -0400
From: =?iso-8859-1?q?Marcelo=20Pithan?= 
Subject: p/pirates_from_hell/the_house_of_devils.tab

PIRATES FROM HELL'2000
"The House Of Devils"
'Through The Hell's Gate'
Riffs written by Marck Pithan, Vinny Blacksoul.
instrumental
tab by: Guiso Soares

gtr1: Marck Pithan
gtr2: Vinny Blacksoul
gtr3: Marck Pithan

This is the best instrumental song I ever have heard around there. 
It just rocks!!!  One of the three greatest Pirates From Hell Song.

All right... True Heavy Metal...

Tunning Guitar: e,B,G,D,A,E.


INTRO/RIFF 1: (slow)
 gtr2
|--------------------------|--------------------------|
|--------------------------|--------------------------|
|--------------------------|--------------------------|
|-----2---0-0------0---2-2-|-----2------------2-------|
|---2---2--------2---2-----|---2---2-3~-----2---2-3~--|
|-0------------0-----------|-0------------0-----------|
    8x                         2x

 gtr1:
|--------------------------|--------------------------|
|--------------------------|--------------------------|
|-----9---7-7------7---9-9-|-----9------------9-------|
|---9---9--------9---9-----|---9---9-10~----9---9-10~-|
|-7------------7-----------|-7------------7-----------|
|--------------------------|--------------------------|


Marck does a solo on this part. Try it on Em5.



RIFF 2: gtr3


|---------------|---------------------|---------|
|---------------|---------------------|---------|
|---------------|---------------------|---------|
|---------------|-9-9/7-5-----7-7/9-9-|-5-5/7-7-|
|-7-7-7-7-7-7-7-|-7-7/5-5-----5-5/7-7-|-3-3/5-5-|
|-0-0-0-0-0-0-0-|---------------------|---------|
  once            repeat for awile   then, it's too.
 

Gtr3 plays this riff as Gtr1 and Gtr2 play Riff 1.

Later, You gotta play it faster then played now. I'll tell you when.



RIFF 3: both guitars
                 Em5
|---------------------|
|---------------------|
|---------------------|
|-7--5--4--2------2---|
|-5--3--2--0------2---|
|-----------------0---|

After played D5,C5,B5,A5 and finally Em5, fade away.

For the ending of the whole song, the last Em5 chord is detuned down.



RIFF 4:

gtr1:
|--------------------------------------|
|--------------------------------------|
|--------------------------------------|
|--------------------------------------|
|--------------------------------------|
|-0h2-0h2-0h2-3-3-0h2-0h2-0h2-xxxxxxxx-|

gtr2 plays open E string and not the mute notes



RIFF 5: both guitars

|---------------|-------|----------|
|---------------|-------|----------|
|---------------|-------|----------|
|---------------|-------|----------|
|-2---2---2---2-|-4/5-4-|-4/5-7-77-|
|-0-000-000-000-|-2/3-2-|-2/3-5-55-|
   1,3             2       4

Follow the number: "1" first, then "2", then "3", so "4".


RIFF 6: gtr1 and bass guitar
|--------|-----------------|---------------|---------------|----------------|
|--------|-----------------|---------------|---------------|----------------|
|--------|-----------------|---------------|---------------|----------------|
|--------|-----------------|---------------|---------------|----------------|
|--------|------0---0-2-0--|3-3-2-2-0-0-2-2|3-3-2-2-3-3-2-2|3-3-2-2-3-3-3/5\|
|00000000|0-2-3---3-------3|---------------|---------------|----------------|
   A          B                   C                 D                 E

follow this order: A,B,A,C,A,B,A,D,A,B,A,E.



RIFF 7: Rhythm for harmony and main solos.

Gtr1:
|------------------------|----------|------|--------|------|
|------------------------|----------|------|--------|------|
|------------------------|----------|-5--2-|-5--4/5-|-5--7-|
|-2--2-2--2--2-2--2--2-2-|-5-5--7-7-|-5--2-|-5--4/5-|-5--7-|
|-2--2-2--2--2-2--2--2-2-|-5-5--7-7-|-3--0-|-3--2/3-|-3--5-|
|-0--0-0--0--0-0--0--0-0-|-3-3--5-5-|------|--------|------|
 1,3,5,7                  2          4      6        8

Follow the number...      



RIFF 8: Harmony:

gtr2:
|--------|------5---5-7-5--|8-8-7-7-5-5-7-7|8-8-7-7-8-8-7-7|8-8-7-7-8-8-/10\|
|55555555|5-7-8---7-------8|---------------|---------------|----------------|
|--------|-----------------|---------------|---------------|----------------|
|--------|-----------------|---------------|---------------|----------------|
|--------|-----------------|---------------|---------------|----------------|
|--------|-----------------|---------------|---------------|----------------|
   A          B                   C                 D                 E

gtr3:
|----------|--------8--8-10-8--|-12-12-10-10-8-8-10-10-|-12-12-10-10-12-12-10-10
|-88888888-|-8-10-12-12------12|-----------------------|------------------------
|----------|-------------------|-----------------------|------------------------
|----------|-------------------|-----------------------|------------------------
|----------|-------------------|-----------------------|------------------------
|----------|-------------------|-----------------------|------------------------
   A          B                   C                       D

cont
  -12-12-10-10-12-12-12-/14\-|e
  ---------------------------|B
  ---------------------------|
  ---------------------------|
  ---------------------------|
  ---------------------------|
   E

Gtr2 and gtr3 follow this order: A,B,A,C,A,B,A,D,A,B,A,E.


Well, I think it's all...
There's a live version of this song, but I guess it ain't so diferent as the 
album record version.
The solos are so hard to do, but if anybody knows them  sand me a e-mail.
Tap to rate this tab
# A B C D E F G H I J K L M N O P Q R S T U V W X Y Z