Song name
# A B C D E F G H I J K L M N O P Q R S T U V W X Y Z

Pissing Razors - Keep To Myself tab

Band- Pissing Razors
Song- Keep To Myself

Again Cesar Doesnt Use a 7 string...
The gauges of the strings i use are
11, 14, 18, 36, 52, 70
and it seems to work just fine for me...


X = Palm Muted
/ = Slide
\ = Slide
P = Pull Off
H = Hammer On

Play this fast.. 3x
1|-------------------------------------------------------------|
2|-------------------------------------------------------------|
3|-------------------------------------------------------------|
4|-------------------------------------------------------------|
5|-------------------------------------------------------------|
6|-4444444444--------------------------------------------------|
   xxxxxxxxxx

00:09
On the 4th time it jumps int to this
THOSE ARE 1's AND 2's NOT 11's AND 22's
Repeat 4x
1|-------------------------------------------------------------|
2|-------------------------------------------------------------|
3|-------------------------------------------------------------|
4|-------------6-66\-1-11/-2-22/-------------------------------|
5|-------------6-66\-1-11/-2-22/-------------------------------|
6|-4444444444/-6-66\-1-11/-2-22/-------------------------------|
   xxxxxxxxxx    xx    xx    xx


00:19
For this one The Palm Muting Switches around its On/ Off Muting
Listen for it..
Repeat 4x ..On the Last one Play the 4's then go into the other part..
1|--------------------------------------|-----------------------|
2|--------------------------------------|-----------------------|
3|--------------------------------------|-----------------------|
4|-------------66-6\-11-1/-22-2/--------|-----------------------|
5|-------------66-6\-11-1/-22-2/--------|-----------------------|
6|-4444444444/-66-6\-11-1/-22-2/--------|-4444444444------------|
               x  x  x  x  x  x

00:30
Palm Muted Fast Part
Repeat 4x
1|-------------------------------------------------------------|
2|-------------------------------------------------------------|
3|-------------------------------------------------------------|
4|-------------------------------------------------------------|
5|-------------------------------------------------------------|
6|--66666\11111/22222/444444-----------------------------------|


Then Back to this part..Except the 4's come after instead of Before..
Repeat 8x
00:40
1|-------------------------------------------------------------|
2|-------------------------------------------------------------|
3|-------------------------------------------------------------|
4|--66-6\-11-1/-22-2/------------------------------------------|
5|--66-6\-11-1/-22-2/------------------------------------------|
6|--66-6\-11-1/-22-2/---4444444444-----------------------------|
    x  x  x  x  x  x    xxxxxxxxxx

Then this part ONLY ONCE
01:00
1|-------------------------------------------------------------|
2|-------------------------------------------------------------|
3|-------------------------------------------------------------|
4|---6------1------2------4------------------------------------|
5|-------------------------------------------------------------|
6|-6---6\-1---1/-2---2/-4---4----------------------------------|

Then the Fun Part
Fast Palm Muted While Solo is going on
01:03
Repeat 6 times
1|-------------------------------------------------------------|
2|-------------------------------------------------------------|
3|-------------------------------------------------------------|
4|-------------------------------------------------------------|
5|-------------------------------------------------------------|
6|--7p666h7p666\-2p111h2p111/-3p222h5p222h3p222h5p222----------|
    x xxx x xxx  x xxx x xxx  x xxx x xxx x xxx x xxx


Then it goes into this
Not Palm Muted
Repeat 2x
01:26
1|-------------------------------------------------------------|
2|-------------------------------------------------------------|
3|-------------------------------------------------------------|
4|--6-666\-1-111/-2-222--2-222---------------------------------|
5|--6-666\-1-111/-2-222--2-222---------------------------------|
6|--6-666\-1-111/-2-222--2-222---------------------------------|

Then this one which is On and Off Palm Muted
01:33
Repeat 2x
1|-----------------------------|-------------------------------|
2|-----------------------------|-------------------------------|
3|-----------------------------|-------------------------------|
4|--6-666\-1-111/-2-222--2-222-|-------------------------------|
5|--6-666\-1-111/-2-222--2-222-|-2p1p0-------------------------|
6|--6-666\-1-111/-2-222--2-222-|-2p1p0-------------------------|
    x  xx  x  xx  x  xx  x  xx   x x x

Then Back to the Begining Part
01:42
3x
1|-------------------------------------------------------------|
2|-------------------------------------------------------------|
3|-------------------------------------------------------------|
4|-------------------------------------------------------------|
5|-------------------------------------------------------------|
6|-44444444444-------------------------------------------------|
   xxxxxxxxxxx

Again on the 4th one Jump to this..Palm Muting switches again
01:50
Repeat 8 times and on the last one play the 4's at the end
1|---------------------------------|----------------------------|
2|---------------------------------|----------------------------|
3|---------------------------------|----------------------------|
4|-------------6-66\-1-11/-2-22/---|----------------------------|
5|-------------6-66\-1-11/-2-22/---|----------------------------|
6|-4444444444/-6-66\-1-11/-2-22/---|--444444444-----------------|
   xxxxxxxxxx  x     x     x


Then Back to this part
Repeat 8 times
2:10
1|-------------------------------------------------------------|
2|-------------------------------------------------------------|
3|-------------------------------------------------------------|
4|---6------1------2------4------------------------------------|
5|-------------------------------------------------------------|
6|-6---6\-1---1/-2---2/-4---4----------------------------------|

Back to this part Again
2:33
Repeat 2x
1|-------------------------------------------------------------|
2|-------------------------------------------------------------|
3|-------------------------------------------------------------|
4|-------------------------------------------------------------|
5|-------------------------------------------------------------|
6|--7p666h7p666\-2p111h2p111/-3p222h5p222h3p222h5p222----------|
    x xxx x xxx  x xxx x xxx  x xxx x xxx x xxx x xxx


Then Back to this part
Repeat 2x
02:40
1|-------------------------------------------------------------|
2|-------------------------------------------------------------|
3|-------------------------------------------------------------|
4|--6-666\-1-111/-2-222--2-222---------------------------------|
5|--6-666\-1-111/-2-222--2-222---------------------------------|
6|--6-666\-1-111/-2-222--2-222---------------------------------|


Then this one which is On and Off Palm Muted
Repeat 8x
02:48 and Play till the end of the song...
1|-----------------------------|-------------------------------|
2|-----------------------------|-------------------------------|
3|-----------------------------|-------------------------------|
4|--6-666\-1-111/-2-222--2-222-|-------------------------------|
5|--6-666\-1-111/-2-222--2-222-|-2p1p0-------------------------|
6|--6-666\-1-111/-2-222--2-222-|-2p1p0-------------------------|
    x  xx  x  xx  x  xx  x  xx   x x x
Keeeeeeeeeeeeeep Tooooooooooo Myseeeeeeeeeeeeeeeelfff
Tap to rate this tab
 
# A B C D E F G H I J K L M N O P Q R S T U V W X Y Z