Song name
# A B C D E F G H I J K L M N O P Q R S T U V W X Y Z

Pissing Razors - Mass Corruption tab

Band- Pissing Razors
Song- Mass Corruption

Key
= after note = vibrato
^ after note = heavy vibrato
\ = slide down
/ = slide up
+ = tap
h = hammer
p = pull
n = natural harmonic
s = pinching harmonic (squeal)
* = tremolo pick
t = trill
b = bend
|-3-| = triplet

n number above the tab = play the first part then the first finishing part
			 play the first part a second time and then play the second finishing part
			 etc.

Tune to Drop D Down 1 Step

Riff 1

D ---------------------------------|
A ---------------------------------|
F ---------------------------------|
C ---------------------------------|
G ---------------------------------|
C -0-2-2-0-2-2-0-2-2-0-2-2-0-2-2-0-|

Riff 1A

D ---------------------------------|
A ---------------------------------|
F ---------------------------------|
C -0-2-2-0-2-2-0-2-2-0-2-2-0-2-2-0-|
G -0-2-2-0-2-2-0-2-2-0-2-2-0-2-2-0-|
C -0-2-2-0-2-2-0-2-2-0-2-2-0-2-2-0-|

Riff 2

D -------------------------------|
A -------------------------------|
F -------------------------------|
C -------------------------------|
G -------------------------------|
C -2-0-2-0-/6--0--2-0-2-0-/6--0--|

Riff 2A

D -------------------------------|
A -------------------------------|
F -------------------------------|
C -2-0-2-0-/6--0--2-0-2-0-/6--0--|
G -2-0-2-0-/6--0--2-0-2-0-/6--0--|
C -2-0-2-0-/6--0--2-0-2-0-/6--0--|

Riff 2B

D ----------------------------------------------|
A ----------------------------------------------|
F ----------------------------------------------|
C ----------------------------------------------|
G ----------------------------------------------|
C -2-0-2-0-/6--0--2-0-2-0-/6--0--2-0-2-0-/6--0--|

Riff 3

D -------------------------------|
A -------------------------------|
F ---------------6-6-6-5-5-5-4---|
C -4-4-3---0-0-0-6-6-6-5-5-5-4-2-|
G -4-4-3---0-0-0-4-4-4-3-3-3-2-2-|
C -4-4-3---0-0-0---------------2-|

Fill 1

D ------------------------------|
A ------------------------------|
F ------------------------------|
C ------------------------------|
G ------------------------------|
C -22-2--22-2--22-2--22-2--2-2--|

Riff 4A

D ---------------------------------------------------------|
A ---------------------------------------------------------|
F ---------------------------------------------------------|
C ---2-0--1-0--2-0--1-0--2-0-----2-0--1-0--2-0--1-0--2-0---|
G ---2-0--1-0--2-0--1-0--2-0-----2-0--1-0--2-0--1-0--2-0---|
C -0-2-0--1-0--2-0--1-0--2-0---0-2-0--1-0--2-0--1-0--2-0---|

Fill 2

D --------|
A --------|
F --------|
C -4-4-3--|
G -4-4-3--|
C -4-4-3--|

Order

Riff 1 x 10
Riff 1A x 4
Riff 2 x 4
Riff 2A x 8
Riff 1A x 4
Riff 2A x 4
Riff 3 x 6
Fill 1 x 1
Riff 4 x 8
Solo over Riff 1 x 8
Riff 2 x 1
Riff 2B x 1
Riff 2A x 4
Riff 3 x 14
Fill 2 x 1
Tap to rate this tab
# A B C D E F G H I J K L M N O P Q R S T U V W X Y Z