Guitaretab - guitar tabs
Song name
# A B C D E F G H I J K L M N O P Q R S T U V W X Y Z

Pist - Prayer Of Life tab

Pist - Prayer of Life
Tabbed By: Mike M.
EMail: rckin213@mindspring.com


Standard tuning-

Whole sond distorted
~=let note ring
x= muted

Let bass play once   
                     INTRO
||---------------------------------------||
||---------------------------------------||
||---------------------------------------||
||---------------------------------------||
||---------------------------------------||
||-77777-55555-99999-1212121212----------||

1st Verse
||---------------------------------------||
||---------------------------------------||
||---------------------------------------||
||---------------------------------------||(x2)
||-77777-55555-99999-1212121212----------|| on 2nd time dont play the 12th frets
||-77777-55555-99999-1212121212----------||

2nd verse
||---------------------------------------||
||---------------------------------------||
||---------------------------------------||
||---------------------------------------||(x4)
||-7-----7-----7---8-----8---10----8-----||
||-5xxxx-5xxxx-5xx-6xxxx-6xx--8xxx-6x----||


Chorous
||---------------------------------------||
||---------------------------------------||
||---------------------------------------||
||---------------------------------------||(x2)
||--7777--8888--6666--7777---------------||
||-5-----6-----4-----5-------------------||
[ Tab from: http://www.guitaretab.com/p/pist/42679.html ]
3rd Verse
||---------------------------------------||
||---------------------------------------||
||---------------------------------------||
||---------------------------------------||(x4)
||-7-----7-----7---8-----8---10----8-----||
||-5xxxx-5xxxx-5xx-6xxxx-6xx--8xxx-6x----||

Wait for bass solo.

Chorous
||---------------------------------------||
||---------------------------------------||
||---------------------------------------||
||---------------------------------------||(x2)
||--7777--8888--6666--7777---------------||
||-5-----6-----4-----5-------------------||


||---------------------------------------||
||---------------------------------------||
||---------------------------------------||
||---------------------------------------||(x4)
||-7-7-7--6-6----------------------------||
||-5-5-5--4-4----------------------------||

||---------------------------------------||
||---------------------------------------||
||---------------------------------------||
||---------------------------------------||(x4)
||-7-77-8-8-10-8-7-----------------------||
||-5-55-6-6--8-6-5-----------------------||


||---------------------------------------||
||---------------------------------------||
||---------------------------------------||
||---------------------------------------||(x2)
||-7-----7-----7---8-----8---10----8~----||only on 2nd time let note ring
||-5xxxx-5xxxx-5xx-6xxxx-6xx--8xxx-6x~---||

end
Related for Prayer Of Life tab
Advertisement will be closed in 10 seconds