Song name
# A B C D E F G H I J K L M N O P Q R S T U V W X Y Z

Pistol Grip - Broken Radio tab

any complaints should be sent to coltacola@hotmail.com

e|------------------------------------------------------|
B|------------------------------------------------------|
G|---16----16--19------------------------------19-------|
D|-----------------19----19--19--16----16--16------19---|    x4 then do a
A|------------------------------------------------------|       slide down
E|------------------------------------------------------|
that second last 19 might not be right, if it doesn't sound right, play it as a 19 on 
lower string

while that's going on, so is this(on the third time through)
e|---------------------------------------------------------------------------|
B|---------------------------------------------------------------------------|
G|---------------------------------------------------------------------------|
D|---------------------------------------------------------------------------|
A|--9-----------12----------14------------7----------------------------------|
E|--7-----------10----------12------------5----------------------------------|
it goes like that for a while except strumming then when the verse starts it's like this

e|---------------------------------------------------------------------------|
B|---------------------------------------------------------------------------|
G|---------------------------------------------------------------------------|
D|---------------------------------------------------------------------------|
A|--9-----------12-----------5-------------7---------------------------------|
E|--7-----------10-----------3-------------5---------------------------------|
then when he stops singing it goes

e|---------------------------------------------------------------------------|
B|---------------------------------------------------------------------------|
G|---------------------------------------------------------------------------|
D|---------------------------------------------------------------------------|
A|--9----7----5----7----9----7----5----7-------------------------------------|
E|--7----5----3----5----7----5----3----5-------------------------------------|

then after that it's all some order of those parts except the solo

this song rocks and i'm surprised i have the first tab of it. good luck.

http://www.pistolgrip.net/
Tap to rate this tab
# A B C D E F G H I J K L M N O P Q R S T U V W X Y Z