Song name
# A B C D E F G H I J K L M N O P Q R S T U V W X Y Z

Pistoleros - Everybody Sometimes tab

 ________________________________________
| Tabbed by sPiN cO. | manata@purdue.edu |
 ----------------------------------------

Everybody Sometimes
By The Pistoleros

Intro:

   D     G   Em   D  D     G   Em   D
E|------------------------------------|
B|-------3--------3--------3--------3-|
G|-----2-----2/4---------2-----2/4----|
D|---4-----------------4--------------|
A|-5-----------------5----------------|
E|------------------------------------|


Verse 1:
D         G          Em      D
  Tell me why you?re feeling down
D       G            Em     D
  After love stopped coming round
D          G         Em       D
  Have you lost your piece of mind
     G         D           Em           D
It?s out there somewhere I think you?ll find

Chorus 1:
          D    G  Em  D
Everybody wins    sometimes
            D        G            Em   D
Everybody?s heart is with you you feel alright
          D    G  Em  D
Everybody wins    sometimes
      G         D     Em   D
Is it your turn maybe this time


Instrumental:
                  *N.H.
   D           G  Em D   D           G  Em          D
E|-----------------------------------------------------|
B|-----------------------------------------------------|
G|-11b12r11-10-----------11b12r11-12-14-11b12r11-12-11-|
D|-------------12-/*12---------------------------------|
A|-----------------------------------------------------|
E|-----------------------------------------------------|

Verse 2:
Take my hand
Make that call
In my arms
Is where you will fall
Walking through
Is the hardest part
On the other side
It?s a brand new start

Chorus 2:
Everybody wins
Sometimes
Everybody?s heart is with you
You?ll be alright
Everybody wins
Sometimes
Is it your turn maybe
This time

Bridge: (instrumental)
A C B A x2

Chorus 3:
Everybody wins
Sometimes
Everybody?s heart is with you
You feel alright
Everybody wins
Sometimes
Is it your turn maybe
This time
Is it your turn maybe
This time
Tap to rate this tab
# A B C D E F G H I J K L M N O P Q R S T U V W X Y Z