Song name
# A B C D E F G H I J K L M N O P Q R S T U V W X Y Z

Piston - Grey Flap tab

My first Tab ever! I think itīs pretty correct, please tell me if itīs not. Love 
Tune down to C# (1.5 steps down) Itīs not complete (The part where Val sings is missing), but 
improve!

Any notes or corrections? hanswuerstel@googlemail.com

Please give me a feedback
.
.
.
time never was as they are for me
im happiest in a world full over error
time breaks my heart chnaged my soul again this time my friend

|------------------------------------|
|------------------------------------|
|------------------------------------|
|-----2-------0-------2-------3------|    Repeat (Clean)
|---2---2---2---2---3---3---3---3----|
|-0-------3-------0-------1----------|

excuse im wrong
C#5          E5

but i need some encouraging
      B5          F#5

thank you for being so bold
E5            F#5        C#5/E5  <----Slide to E5

so catch me when i fall
   C#5             E5

so i need your touch beside me
     B5        F#5

thank you for being so bold
E5            F#5         C#5/E5  <----Slide to E5


and armed with your look that's my fault i see
and safe in your world. full of time full of pressure
time breaks my heart chnaged my soul again this time my friend

|------------------------------------|
|------------------------------------|
|------------------------------------|
|-----2-------0-------2-------3------|    Repeat (Distorted)
|---2---2---2---2---3---3---3---3----|
|-0-------3-------0-------1----------|

http://myspace.com/pistonnyc
http://pistarmy.com
Tap to rate this tab
# A B C D E F G H I J K L M N O P Q R S T U V W X Y Z