Song name
# A B C D E F G H I J K L M N O P Q R S T U V W X Y Z

Pitbull - Hotel Room Service tab

I HAVE TABBED THIS TO FINISH WHAT 
WAS STARTED BY THE PREVIOUS TABER. 
I WILL LEAVE ALL CREDIT TO THE 
CREATOR OF THE FIRST PART OF THIS 
TAB BECAUSE I HAVE ONLY CREATED 
THE LAST PART. I HAVE PUT THEM 
BOTH INTO ONE TAB SIMPLY FOR THE 
CONVENIENCE OF THE GUITAR PLAYERS 
WISHING TO PLAY THE SONG. I AM ONLY 
13 AND THIS IS MY FIRST TAB SO PLEASE 
NO HATE MAIL.

STANDARD TUNE
EADGBe

THIS IS THE MAIN RIFF PLAYED 
THROUGH MOST OF THE SONG.

e|--------------------|-----------------|
B|----------10--7--7--|-----------------|
G|------7-9-----------|-----7-9-6--6--6-|
D|--9-9---------------|-9-9-------------|
A|--------------------|-----------------|
E|--------------------|-----------------|

ONCE THE SONG GETS TO THE PART WERE 
THE LYRICS SAY:"SHE LIKE THAT FREAKY STUFF"
THE SONG CHANGES AND THE INTRO BEAT 
STOPS AND A NEW ONE BEGINS THIS IS 
HOW IT GOES. IF I PUT A (X'S 4) THIS 
MEANS YOU PLAY THE NOTES YOU JUST PLAYED
TIMES FOUR. SUCH AS YOU JUST PLAYED 
THE SAME FRET 3 TIMES, I PUT A (X'S 4) 
NEXT TO IT. THIS MEANS YOU PLAY IT 12 
TIMES( 3x4=12). ALSO TAP THE STRING FOR 
EVERY STRUM.

e|--------------------|--------------------|
B|--------------------|--------------------|
G|--------------------|--------------------|
D|--------------------|--------------------|
A|12-12-12(X'S 4)-----|-----10-10-10(X'S 4)|
E|---------------12-12|12-12---------------|

e|--------------------|--------------------|
B|--------------------|--------------------|
G|--------------------|--------------------|
D|--------------------|--------------------|
A|9-9-9-9-------------|--------------------|
E|--------------------|--------------------|

AND THIS IS CONTINUED UNTIL THE LYRICS 
INCLUDE:" WE GOIN FREAK SOME MORE"
THEN GO BACK TO THE INTRO RIFF.

ALABAMA1996
Tap to rate this tab
 
# A B C D E F G H I J K L M N O P Q R S T U V W X Y Z