Song name
# A B C D E F G H I J K L M N O P Q R S T U V W X Y Z

Pitch Black - Fight For Tommorw tab

INTRO:                chorus:            solo:

6--------------      6--------------         6--13-14-12-13--12-|
5--------------      5--------------         5------------------|
4------15--17b-      4--------------         4------------------|
3----0---------      3--------------         3------------------|
2---0----------      2--444044404440         2------------------|
1--0-----------x2    1--222022202220x4       1------------------|x3


outro:

6---------------|
5---------------|
4---------------|
3---------------|
2----4-3----4-3-|
1--4------0-----|x3
Tap to rate this tab
 
# A B C D E F G H I J K L M N O P Q R S T U V W X Y Z