Song name
# A B C D E F G H I J K L M N O P Q R S T U V W X Y Z

Pitchshifter - Whats In It For Me tab

Song: What's in it for me?
Band: Pitchshifter
album: www.pitchshifter.com
tabbed by: tonnuko
tuning: Drop-D


-Verse-

/-----------/17//16----------/17//16-------|
/------------------------------------------|
/------(13)-------------(13)---------------|
/------------------------------------------|
/------------------------------------------|
/------------------------------------------|


/------------------------------------------------|
/------------------------------------------------|
/------------------------------------------------|
/--6-1-6-4-1-6---------------------6-1-6-4-1-6---|
/--6-1-6-4-1-6---------------------6-1-6-4-1-6---|
/--6-1-6-4-1-6---------------------6-1-6-4-1-6---|


"left that i can't call my..."    "left is that one burning question"

-Chorus-

/-----------------------------------------|
/-----------------------------------------|
/-----------------------------------------|
/-6--6--6----1//4--1--6--6--6----1//4--1--|
/-6--6--6----1//4--1--6--6--6----1//4--1--|
/-6--6--6----1//4--1--6--6--6----1//4--1--|


-Final Chorus-

/-----------------------------------------|
/-----------------------------------------|
/-----------------------------------------|
/-6XX6XX6----1//4--1--6XX6XX6----1//4--1--|
/-6XX6XX6----1//4--1--6XX6XX6----1//4--1--|
/-6XX6XX6----1//4--1--6XX6XX6----1//4--1--|

end

/------------|
/------------|
/------------|
/-6--6--6----|
/-6--6--6----|
/-6--6--6----|

plz rate it awesome!
Tap to rate this tab
 
# A B C D E F G H I J K L M N O P Q R S T U V W X Y Z