Song name
# A B C D E F G H I J K L M N O P Q R S T U V W X Y Z

Pitchshifter - Ncm tab

Help us improve GuitareTab! Take a short survey!
"N.C.M." by Pitch Shifter (Desensitized)

tuning - high to low: DAFCGD (down 1 whole step)

the timing should be close, but it isn't exact. listen to the cd.
also, there are some slight variations on the riffs that are easy to
figure out.

intro / bass riff
F |----------------------------------|
C |----------------------------------|
G |----------------------------------|
D |-3-5-3---0---0-0-3---0-3---5-6----|

then
d |----------------------------------|
A |----------------------------------|
F |----------------------------------|
C |----------------------------------|
G |-7-------5-------7-----5---7/8----|
D |-5-0-0-0-3-0-0-0-5-0-0-3---5/6----|


with drum roll
d |----------------------------------|
A |----------------------------------|
F |-------------------------etc------|
C |----------------------------------|
G |-5-5-5-5-5-5-5-5-555555555555555--|
D |-3-3-3-3-3-3-3-3-333333333333333--|


d |----------------------------------|-----|-------|
A |----------------------------------|-----|-------|
F |----------------------------------|-----|-------|
C |----------------------------------|-----|-------|
G |-5-------2-------------5---7/8----|-5---|-5-----|
D |-3-------0-------0-3-0-3---5/6----|-3---|-3p0---|


then
d |------------------------------------|
A |------------------------------------|
F |------------------------------------|
C |------------------------------------|
G |-5---5-5-5---2---2-------2---7/8----|
D |-3---3-3-3---0--00---0-0-0---5/6----|
"insane... insane..."


                            ^3??
Related for Ncm tab